Blink 182 - Heres Your Letter Chords & Tabs

 

Heres Your Letter Chords & Tabs

Blink 182 Chords & Tabs

Version: 3 Type: Tab 0 ratings
1 star 2 stars 3 stars 4 stars 5 stars
comments

Heres Your Letter Tab

Blink 182 from album Blink 182

Tab by Neil Speirs

This tab is pretty much 99/100% correct if you have any corrections
please send me an email but just follow the tab and listen to the track
sounds good to me! Cheers

neil.s@btopenworld.com

Intro Pt.1 
E------------------------------------
B------------------------------------
G----7-------------------------------
D--4-7-11-9--------------------------
A--4-5-x--x--------------------------
E--2---9--7--------------------------

Intro Pt.2 
E-----------------------------------
B-----------------------------------
G----7------------------------------
D--4-7-7----------------------------
A--4-5-x---(let ring into verse)----
E--2---5----------------------------

Verse Pt.1 (Palm Mute)
Bass plays the verse 1st then the guitar comes in palm muted.
E------------------------------------
B------------------------------------
G----7-2-4---------------------------
D--4-7-2-4---------------------------
A--4-5-0-2---------------------------
E--2---------------------------------
p.m
[ Tab from: http://www.guitartabs.cc/tabs/b/blink_182/heres_your_letter_tab_ver_3.html ]
Verse Pt.2 (Palm Mute)
E------------------------------------
B------------------------------------
G----7-------------------------------
D--4-7-7--(let ring into chorus)-----
A--4-5-x-----------------------------
E--2---5-----------------------------

Chorus x2
E------------------------------------
B------------------------------------
G--------------7---------------------
D--7-11-2-4----x---------------------
A--7-11-2-4----5---------------------
E--5-9--0-2--------------------------

Repeat Intro As Before

Repeat Verse As Before

Chorus x4

Interlude Pt.1 x2
E-------------------------------------
B-------------------------------------
G------------7------------------------
D--11--------7------------------------
A--11--------5------------------------
E--9----------------------------------

Interlude Pt.2 x2
E-------------------------------------
B-------------------------------------
G-------------------------------------
D--4-6-7------------------------------
A--4-x-5------------------------------
E--2-4-5------------------------------

Repeat Chorus x4

Repeat Intro

End On
E------------
B------------
G------------
D--4---------
A--4---------
E--2---------
Comments