Blink 182 - Heres Your Letter Chords & Tabs

 

Heres Your Letter Chords & Tabs

Blink 182 Chords & Tabs

Version: 2 Type: Tab 0 ratings
1 star 2 stars 3 stars 4 stars 5 stars
comments

Heres Your Letter Tab

----------------------------------------------------------------------------
	        Here's Your Letter - Blink 182
----------------------------------------------------------------------------
Tabbed by: Nick
Email: Pacific12977@hotmail.com

Intro 
E----------------------------------------------------------------
B----------------------------------------------------------------
G-----------77777777-22222222-44444444---------------------------
D--44444444-77777777-22222222-44444444---------------------------
A--44444444-55555555-00000000-22222222---------------------------
E--22222222------------------------------------------------------

Intro Con't
E----------------------------------------------------------------
B----------------------------------------------------------------
G-----------77777777-2222222222222222----------------------------
D--44444444-77777777-2222222222222222----------------------------
A--44444444-55555555-0000000000000000----------------------------
E--22222222------------------------------------------------------

Verse (Palm Mute)
The bass play's through once, and then the guitar comes in....
E----------------------------------------------------------------
B----------------------------------------------------------------
G-----------77777777-22222222-44444444---------------------------
D--44444444-77777777-22222222-44444444---------------------------
A--44444444-55555555-00000000-22222222---------------------------
E--22222222------------------------------------------------------
[ Tab from: http://www.guitartabs.cc/tabs/b/blink_182/heres_your_letter_tab_ver_2.html ]
Verse Con't (Palm Mute)
E----------------------------------------------------------------
B----------------------------------------------------------------
G-----------77777777-222222222222~------------------------------
D--44444444-77777777-222222222222~-------------------------------
A--44444444-55555555-000000000000~-------------------------------
E--22222222------------------------------------------------------

Chorus (X2)
E----------------------------------------------------------------
B----------------------------------------------------------------
G------------------------777777777777----------------------------
D--777-111111-444-666667-777777777777----------------------------
A--777-111111-444-666667-555555555555----------------------------
E--555-9-9-9--222-444445-----------------------------------------

Intro

Verse

Chorus (X4)

Interlude (X2)
E---------------------------------------------------------------
B---------------------------------------------------------------
G---------------------777777777777------------------------------
D--777777777777-------777777777777------------------------------
A--777777777777-4h5p4-555555555555------------------------------
E--555555555555-------------------------------------------------

Interlude Con't (X2)
E----------------------------------------------------------------
B----------------------------------------------------------------
G---------------999999999999-777777777777777777777777------------
D--444444444444-999999999999-777777777777777777777777------------
A--444444444444-777777777777-555555555555555555555555------------
E--222222222222--------------------------------------------------

Chorus (X4)

Intro

End On
E------------
B------------
G------------
D--4---------
A--4---------
E--2---------
Comments