Blink 182 - Heres Your Letter Chords & Tabs

 

Heres Your Letter Chords & Tabs

Blink 182 Chords & Tabs

Version: 3 Type: Bass Tab 2 ratings
1 star 2 stars 3 stars 4 stars 5 stars
comments

Heres Your Letter Bass Tab

blink 182
heres your letter
tabbed by daniel182

this song is real good, im 99.9% sure this is right, please rate!

intro
|-----------------------------------|  |----------------------------------|
|-----------------------------------|  |----------------------------------|
|--------55555555-00000000-22222222-|x1|--------55555555-0000000000000000-|x1
|22222222---------------------------|  |22222222--------------------------|

verse 1
|-----------------------------------|  |---------------------------------|
|-----------------------------------|  |---------------------------------|
|--------55-55-5-00-00-0-22-2-2h4p2-|x1|--------55-55-5-0000000000000000-|x1
|222-22-2---------------------------|  |222-22-2-------------------------|

|------------------------------------|  |-------------------------|
|------------------------------------|  |-------------------------|
|---------55-55-5-00-00-0-22-2-2h4p2-|x1|---------55-55-5-0~~~~~~-|x1
|-222-22-2---------------------------|  |-222-22-2----------------|

chorus
|------------------------------|
|------------------------------|
|-------------------5555555555-|x2
|-555-444-000-222222-----------|
[ Tab from: http://www.guitartabs.cc/tabs/b/blink_182/heres_your_letter_btab_ver_3.html ]
verse 2
|------------------------------------|  |---------------------------------|
|------------------------------------|  |---------------------------------|
|---------55-55-5-00-00-0-22-2-2h4p2-|x1|--------55-55-5-0000000000000000-|x1
|-222-22-2---------------------------|  |222-22-2-------------------------|

|------------------------------------|  |-------------------------|
|------------------------------------|  |-------------------------|
|---------55-55-5-00-00-0-22-2-2h4p2-|x1|---------55-55-5-0~~~~~~-|x1
|-222-22-2---------------------------|  |-222-22-2----------------|

chorus
|------------------------------|
|------------------------------|
|-------------------5555555555-|x4
|-555-444-000-222222-----------|

bridge
|-------------------------------|
|-------------------------------|
|------------------555555555555-|x2
|-5555555555555554--------------|

|--------------------------------------------------------------------|
|--------------------------------------------------------------------|
|--------------------------------------------------------------------|x2
|-2222222222222222-4444444444444444-55555555555555555555555555555555-|

chorus
|------------------------------|
|------------------------------|
|-------------------5555555555-|x4
|-555-444-000-222222-----------|

outro
|-----------------------------------|  |----------------------------------|
|-----------------------------------|  |----------------------------------|
|--------55555555-00000000-22222222-|x1|--------55555555-0000000000000000-|x1
|22222222---------------------------|  |22222222--------------------------|

|------|
|------|
|-2~~~-|x1
|------|

thats it, i think the bridge might be a little off, correct me if it is, thankx!
Comments