Blink 182 - Happy Holidays You Bastards Chords & Tabs

 

Happy Holidays You Bastards Chords & Tabs

Blink 182 Chords & Tabs

Version: 3 Type: Tab 0 ratings
1 star 2 stars 3 stars 4 stars 5 stars
comments

Happy Holidays You Bastards Tab

Author/Artist: blink 182 
Title: happy holidays you bastards 
Album: take off your pants and jacket 
Transcribed by: Adam 
Email: the_cheeky_chimp@hotmail.com 

Here you go this is my fourth tab so for off the album. 
Any corrections you have my address.  Hope you like it. 

-|---------------------| 
-|---------------------| 
-|---44444-------------| 
-|---44444---444444----| 
-|---22222---444444----| 
-|-----------222222----| 
   Its christmas eve....                                                         
                   
[ Tab from: http://www.guitartabs.cc/tabs/b/blink_182/happy_holidays_you_bastards_tab_ver_3.html ]
-|---------------------| 
-|---------------------| 
-|---------------------| 
-|---6-6-6-6----2-2-2--| 
-|---6-6-6-6----2-2-2--| 
-|---4-4-4-4----0-0-0--| 
   Hate Hate......                                                               
             

-|------------------| 
-|------------------| 
-|-4444-------------| 
-|-4444--4444---2---| 
-|-2222--4444---2---| 
-|-------2222---0---| 
   Ill never talk.....                                                           
                 

-|-------------------------| 
-|-------------------------| 
-|--4444-------------------| 
-|--4444--44444--22222222--| 
-|--2222--44444--22222222--| 
-|--------22222--00000000--| 
   Unless.......                                                                 
           

  Repeat above for second verse 

-|-----| 
-|-----| 
-|-----| 
-|--4--| 
-|--4--| 
-|--2--| 
   End on this 
                                                                               


Comments