Blink 182 - Happy Holidays You Bastard Chords & Tabs

 

Happy Holidays You Bastard Chords & Tabs

Blink 182 Chords & Tabs

Version: 6 Type: Tab 0 ratings
1 star 2 stars 3 stars 4 stars 5 stars
comments

Happy Holidays You Bastard Tab

Song- Happy Holidays, You Bastard
Group- Blink 182
Tabbed- Tom Buckholdt buckta2@yahoo.com

1------------------------------------------------------|
2------------------------------------------------------|
3-4--4---4--4---4--------------------------------------|
4-4--4---4--4---4---4--4---4--4---6--6---6--6-----2--2-|
5-2--2---2--2---2---4--4---4--4---6--6---6--6-----2--2-|
6-------------------2--2---2--2---4--4---4--4-----0--0-|
[ Tab from: http://www.guitartabs.cc/tabs/b/blink_182/happy_holidays_you_bastard_tab_ver_6.html ]
1-----------------------------------------------------|
2-----------------------------------------------------|
3-4---4---------------------------4--4---4------------|
4-4---4---4-------------4--4--4---4--4---4--4--4---4--|
5-2---2---4-------2-----4--4--4---2--2---2--4--4---4--|
6---------2-------0-----2--2--2-----------------------|

1---------------------------------------------------------|
2---------------------------------------------------------|
3------------------------4--4---4-------------------------|
4------------------------4--4---4---4--4---4------4-4-4---|
5--2--2---2--2--2---2----2--2---2---4--4---4---2--4-4-4-2-|
6--0--0---0--0--0---0---------------2--2---2---0--2-2-2-0-|

Reapeat this twice
i dont have the exact speed but these are the exact notes for sure
Comments