Blink 182 - Happy Holidays You Bastard Chords & Tabs

 

Happy Holidays You Bastard Chords & Tabs

Blink 182 Chords & Tabs

Version: 2 Type: Bass Tab 0 ratings
1 star 2 stars 3 stars 4 stars 5 stars
comments

Happy Holidays You Bastard Bass Tab

   
------------------------------------------------------------------------
		Happy Holidays, You bastard- Blink 182
------------------------------------------------------------------------

Tabbed By : Wackstrings
e-mail: bboy_44@hotmail.com

Tuning: Standard (EADG)

Album: Take off your pants & jacket

It's christmas eve and I only wrapped two fucking presents X2
G|-------------------------------------------------------------------------------------|
D|-------------------------------------------------------------------------------------|
A|-2-2-2-2-2-2-2-2---------------------------------------------------------------------|
E|-----------------2-2-2-2-2-----------------------------------------------------------|

And I hate, hate your guts..
G|---------------------------------------------------------------------------------------|
D|---------------------------------------------------------------------------------------|
A|---------------------------------------------------------------------------------------|
E|-4-4-4-4-4-4-0-0-0-0-0-0---------------------------------------------------------------|

Chorus: I'll never talk to you again.. (Repeat as much times as needed)
G|----------------------------------|
D|----------------------------------|
A|-2-2-2-2--------------------------|
E|---------2-2-2-2-0-0-0-0-0-0-0-0--|
[ Tab from: http://www.guitartabs.cc/tabs/b/blink_182/happy_holidays_you_bastard_btab_ver_2.html ]
It's labour day and my grandpa just ate seven fucking hotdogs.. x2
G|-------------------------------------------------------------------------------------|
D|-------------------------------------------------------------------------------------|
A|-2-2-2-2-2-2-2-2---------------------------------------------------------------------|
E|-----------------2-2-2-2-2-----------------------------------------------------------|

And she shit, shit in his pants...
G|-------------------------------|
D|-------------------------------|
A|-------------------------------|
E|--4-4-4-4-4-4-4-0-0-0-0-0-0-0--|

Chorus: I'll never talk to you again.. (Repeat as much times as needed)
G|----------------------------------|
D|----------------------------------|
A|-2-2-2-2--------------------------|
E|---------2-2-2-2-0-0-0-0-0-0-0-0--|

Ending Note: I'll never talk to you again, I'll never talk to you again
G|-------------------------------------------------------------------------------|
D|-------------------------------------------------------------------------------|
A|-2~----------------------------------------------------------------------------|
E|-------------------------------------------------------------------------------|


Merry Christmas.

| /  slide up
| \  slide down
| h  hammer-on
| p  pull-off
| ~  vibrato
| +  harmonic
| x  Mute note
======================================================================
Comments