Blink 182 - Grandpa Chords & Tabs

 

Grandpa Chords & Tabs

Blink 182 Chords & Tabs

Version: 5 Type: Tab 0 ratings
1 star 2 stars 3 stars 4 stars 5 stars
comments

Grandpa Tab

Artist : Blink 182 
Title : When You Fucked Grandpa 
Album : Take Off Your Pants and Jacket 
Tabbed by : Mark Yanish 
E-mail : m1j0y3korn@aol.com 


Verse:  
|--2--0--2--0---------------------|  
|----3--3--3--3---3---3---2---2---|  
|-------------------0---0---2---2-|  
|---------------------------------|  x4 
|---------------------------------|  
|---------------------------------|  

[ Tab from: http://www.guitartabs.cc/tabs/b/blink_182/grandpa_tab_ver_5.html ]
Chorus:  
|---------------------------------|  
|--3--3--3--3-----2---2---2---2---|  
|---0--0--0--0--2---2---2---2-----|  x4 
|---------------------------------|  
|---------------------------------|  
|---------------------------------| 


Verse:  
|--2--0--2--0---------------------|  
|----3--3--3--3---3---3---2---2---|  
|-------------------0---0---2---2-|  
|---------------------------------|  x6 
|---------------------------------|  
|---------------------------------| 


Chorus:  
|---------------------------------|  
|--3--3--3--3-----2---2---2---2---|  
|---0--0--0--0--2---2---2---2-----|  x4 
|---------------------------------|  
|---------------------------------|  
|---------------------------------|  

Comments