Blink 182 - Grandpa Chords & Tabs

 

Grandpa Chords & Tabs

Blink 182 Chords & Tabs

Version: 4 Type: Tab 0 ratings
1 star 2 stars 3 stars 4 stars 5 stars
comments

Grandpa Tab

Artist: Blink 182
Song: "Grandpa", the second hidden track on the green cd.
Album: Take off Your Pants and Jacket, green version

Tabbed by:  Howie Saubert, probly@netscape.net

play it nice and slow, about 80 bpm...
fingerpick it on an acoustic too
[ Tab from: http://www.guitartabs.cc/tabs/b/blink_182/grandpa_tab_ver_4.html ]
"verse":
when you fucked grandpa.....
 E :2---0---2---0---|------------------|
 B :--3---3---3---3-|3---3-/5-2---2-/3-|
 G :----------------|--0--------2------|
 D :0---0---0---0---|---------0--------|
 A :----------------|0-----------------|
 E :----------------|------------------|

"chorus":
he seems like a total ass hole....
E :2---2---2---2---|-----------------|
B :--3---3---3---3-|3---3---3---3----|
G :----------------|--0---0---0---0--| X 3 ,and at the      
D :0---0---0---0---|-----------------|   end of the third    
A :----------------|0---0---0---0----|   time play.....
E :----------------|-----------------|

in his ass........... he rubs his dick in broken glass.
E :----------------|
B :2---2---2---2---|
G :--2---2---2---2-|
D :0---0---0---0---|
A :----------------|
E :----------------|
Comments