Blink 182 - Grandpa Chords & Tabs

 

Grandpa Chords & Tabs

Blink 182 Chords & Tabs

Version: 3 Type: Tab 0 ratings
1 star 2 stars 3 stars 4 stars 5 stars
comments

Grandpa Tab

Blink 182, Grandpa.
 Tabbed by Mike, MCDMike86@aol.com.
  
2-----0-----2-----0--------------------------0
---3-----3-----3-----3---3-----3/5--2-----2---
----------------------------0----------2------
0-----0-----0-----0--------------------------- x4
------------------------------------0-----0---
-------------------------3-----3--------------
When you f**k grandpa, does he ask you to filate him

2-----0-----2-----0---------------------------
---3-----3-----3-----3---3-----3/5--2-----2---
----------------------------0----------2-----2
0-----0-----0-----0---------------------------
------------------------------------0-----0---
-------------------------3-----3--------------
And stick a finger or two in his a**
[ Tab from: http://www.guitartabs.cc/tabs/b/blink_182/grandpa_tab_ver_3.html ]
----------------------------------------------
3-----3-----3-----3-----3-----3-----3-----3---
---0-----0-----0-----0-----2-----2-----2-----2
----------------------------------------------
------------------------0-----0-----0-----0---
3-----3-----3-----3---------------------------
He seems like a total a**hole, Grandpa is a total f***ing a**hole


-------------------------------------------------------------------------
3-----3-----3-----3-----3-----3-----3-----3-----2-----2-----2-----2-----2
---0-----0-----0-----0-----2-----2-----2-----2-----2-----2-----2-----2---
-------------------------------------------------------------------------
------------------------0-----0-----0-----0-----0-----0-----0-----0-----0
3-----3-----3-----3------------------------------------------------------
Who would ever want a dirty, greasy, finger, in his a**,  He rubs his d*** in broken glass

Repeat Verse and Chorus once more to finish whole song.
 
:: Ultimate Guitar Archive :: 
http://www.ultimate-guitar.com 



Comments