Blink 182 - Grandpa Song Chords & Tabs

 

Grandpa Song Chords & Tabs

Blink 182 Chords & Tabs

Version: 1 Type: Tab 2 ratings
1 star 2 stars 3 stars 4 stars 5 stars
comments

Grandpa Song Tab

Blink 182


4/4 time

uno, dos, tres, quatro
GO!
[ Tab from: http://www.guitartabs.cc/tabs/b/blink_182/grandpa_song_tab.html ]
verse riff: 4x
e--2-----0-----2-----0----|-------0-----------0----|
B-----3-----3-----3-----3-|----3-----3--2--2-----3-|
G-------------------------|-0----------------------|
D-------------------------|------------------------|
A-------------------------|------------------------|
E-------------------------|------------------------|
  
chorus riff: 3x
e-------------------------|-------------------------|
B--3-----3-----3-----3----|--3-----3-----3-----3----|
G-----0-----0-----0-----0-|-----2-----2-----2-----2-|
D-------------------------|-------------------------|
A-------------------------|-------------------------|
E-------------------------|-------------------------|

end of chorus:
e--3-----3-----3-----3------3-|
B-----2-----2-----2-----2---2-|
G-----------------------------|
D-----------------------------|
A-----------------------------|
E-----------------------------|

so if you put it all together it goes like this:

verse 4x
chorus 3x
chorus end
and you repeat that twice, until the song\'s done
hope you have fun enjoy if you have any comments email
me dunker_in_tea@hotmail.com tabbed by guitar_network

Comments