Blink 182 - Going Away To College Chords & Tabs

 

Going Away To College Chords & Tabs

Blink 182 Chords & Tabs

Version: 8 Type: Tab 0 ratings
1 star 2 stars 3 stars 4 stars 5 stars
comments

Going Away To College Tab

Song: Going Away to College	
Artist: Blink 182
Tabbed by: Andrew (kraftkid87@hotmail.com)
CAPO ON 2ND FRET
I downloaded a live performance of this song, and Tom uses a capo on the second fret. Period.
All notes relative to capo-----i.e, what the tab says is 6 is really 8 on the guitar, but it’s six in relation to the capo….

Intro pt. 1 clean—Play two times

E--------------------------I	E--------------------------
B--------------------------I	B--------------------------
G----6-6-6-6-6-------------I	G--6-6-6-6-6-4-4-4-4-4-----
D----7-7-7-7-7---9-9-9-9-9—Ix2	D--0-0-0-0-0-0-0-0-0-0-----x2
A----0-0-0-0-0---0-0-0-0-0—I	A--0-0-0-0-0-0-0-0-0-0-----
E----0-0-0-0-0---0-0-0-0-0—I	E--------------------------

Intro pt. 2
Kick in gain
E-----------------------------------------------------------------------------		       
B-----------------------------------------------------------------------------	   	       
G------------------6-----------------6-----------------6----------------------		       
D---------7-----------------7-----------------7------------------9--------9---
A----0-0-----0-0----0-0------0-0-----0-0-----0-0-------7-7-----7-7------------		       
E-----------------------------------------------------------------------------		       
P.M=================================================

play 2x then end on   

E-------------
B-------------
G---2~--------
D---2~--------
A---0~--------
E-------------
[ Tab from: http://www.guitartabs.cc/tabs/b/blink_182/going_away_to_college_tab_ver_8.html ]
Prechorus 
(Won’t forget you, I’ll write you once a week she said)
	
E---------------------------------------------------------------------------
B---------------------------------------------------------------------------
G-----2-2-2-2----7-7-7-7/-9-9-9-9-------------------------------------------
D-----2-2-2-2----7-7-7-7/-9-9-9-9-------------------------------------------
A-----0-0-0-0----5-5-5-5/-7-7-7-7-------------------------------------------
E---------------------------------------------------------------------------

E---------------------------------------------------------------------------
B---------------------------------------------------------------------------
G---------------------------------------------------------------------------
D--------7------7-----7------7------7------7-------9-------0----------------
A---0-0---0-0---0-0---0-0----0-0---0-0-----0-0----0-0-----------------------
E---------------------------------------------------------------------------
P.M===============================================

Play Prechorus

Chorus
(I haven’t been this scared, in a long time)

E------------------------------------------------------------------------
B------------------------------------------------------------------------
G----6-6-6-6-6-6-7-7-7-7-7-7--2-2-2-2-2-2--------------------------------
D----x-x-x-x-x-x-x-x-x-x-x-x--2-2-2-2-2-2-2-2-2-2-2-2--------------------
A----4-4-4-4-4-4-5-5-5-5-5-5--0-0-0-0-0-0-2-2-2-2-2-2--------------------
E---------------------------------------------------0-0-0-0-0-0----------

Back to intro pt. 1

Then Chorus
Comments