Blink 182 - Going Away To College Chords & Tabs

 

Going Away To College Chords & Tabs

Blink 182 Chords & Tabs

Version: 2 Type: Tab 3 ratings
1 star 2 stars 3 stars 4 stars 5 stars
comments

Going Away To College Tab

This is the right version strait out of the book, sorry it's just the start    Peace- Charlie

Strum down for the 1st Intro

Intro
E---0--0--0------0--0--0--0----0--0--0------0--0--0--0-----0--0--0------0--0--0--0-
B---2--2--2------0--0--0--0----2--2--2------0--0--0--0-----2--2--2------0--0--0--0-
G---2--2--2------2--2--2--2----2--2--2------2--2--2--2-----2--2--2------2--2--2--2-
D---2--2--2------2--2--2--2----2--2--2------2--2--2--2-----0--0--0------0--0--0--0-
A---0--0--0------0--0--0--0----0--0--0------0--0--0--0-----0--0--0------0--0--0--0-
E---0--0--0------0--0--0--0----0--0--0------0--0--0--0-----0--0--0------0--0--0--0-
[ Tab from: http://www.guitartabs.cc/tabs/b/blink_182/going_away_to_college_tab_ver_2.html ]
E----0--0--0-------0--0--0--0---------0-
B----2--2--2-------0--0--0--0---------2-
G----2--2--2-------2--2--2--2---------2-                   Repeat 2X
D----0--0--0-------0--0--0--0---------2-
A----0--0--0-------0--0--0--0---------0
E----0--0--0-------0--0--0--0---------0-

Intro part 2
E--------------------------------------------------------------------------
B--------------------------------------------------------------------------
G--------------------------------------------------------------------------
D------------------6-----------------6---------------6-----------------
A---------7----------------7----------------7---------------9-------9
E----0-0----0-0-------0-0------0-0------5-5------55------77------77---
Comments