Blink 182 - Going Away To College Chords & Tabs

 

Going Away To College Chords & Tabs

Blink 182 Chords & Tabs

Version: 12 Type: Tab 0 ratings
1 star 2 stars 3 stars 4 stars 5 stars
comments

Going Away To College Tab

               Going Away To College-Blink 182

By: Paul Cowling

Intro Part 1:

E|---------------------------------------------------------|
B|---------------------------------------------------------|
G|--8-8-8-8--6-6-6-6-6-6-----------------------------------|
D|--9-9-9-9--9-9-9-9-9-9-----------------------------------|
A|---------------------------------------------------------|
E|---------------------------------------------------------|
       x7,  Then:

E|---------------------------------------------------------|
B|---------------------------------------------------------|
G|--8-8-8-8--6---------------------------------------------|
D|--9-9-9-9--9---------------------------------------------|
A|---------------------------------------------------------|
E|---------------------------------------------------------|
      Chords played quietly undernieth:

E|---------------------------------------------------------|
B|---------------------------------------------------------|
G|------------------9999999999999999-----------------------|
D|--99999999999999999999999999999999-----------------------|
A|--99999999999999997777777777777777-----------------------|
E|--7777777777777777---------------------------------------|
       x2 (second time, 2nd chord is only played 13 times)

Intro Part 2:

E|---------------------------------------------------------|
B|---------------------------------------------------------|
G|-------------8-------------8-------------8---------------|
D|------9-------------9-------------9----------------------|
A|------------------------------7-7----7-7-----------------|
E|--7-7----7-7----7-7----7-7-------------------------------|

E|---------------------------------------------------------|
B|---------------------------------------------------------|
G|---------------------------------------------------------|
D|------11------11-----------------------------------------|
A|--9-9-----9-9--------------------------------------------|
E|---------------------------------------------------------|
         x2

Chords played undernieth (Double strumming is best):

E|---------------------------------------------------------|
B|---------------------------------------------------------|
G|----------------------------------9-9-9-9-9-9-9-9--------|
D|--9-9-9-9-9-9-9-9-9-9-9-9-9-9-9-9-9-9-9-9-9-9-9-9--------|
A|--9-9-9-9-9-9-9-9-9-9-9-9-9-9-9-9-7-7-7-7-7-7-7-7--------|
E|--7-7-7-7-7-7-7-7-7-7-7-7-7-7-7-7------------------------|
[ Tab from: http://www.guitartabs.cc/tabs/b/blink_182/going_away_to_college_tab_ver_12.html ]
E|---------------------------------------------------------|
B|---------------------------------------------------------|
G|--11-11-11-11-11-11-11-11--------------------------------|
D|--11-11-11-11-11-11-11-11--------------------------------|
A|--9--9--9--9--9--9--9--9---------------------------------|
E|---------------------------------------------------------|
           x2 (Let last chord ring on into verse)

Verse:

No giuitar, only bass, then:

E|---------------------------------------------------------|
B|---------------------------------------------------------|
G|--------------9-9-9-9-9-9-9-9--11-11-11-11-11-11-11-11---|
D|--9--9--9--9--9-9-9-9-9-9-9-9--11-11-11-11-11-11-11-11---|
A|--9--9--9--9--7-7-7-7-7-7-7-7--9--9--9--9--9--9--9--9----|
E|--7--7--7--7---------------------------------------------|
           x2

Chorus:
E|---------------------------------------------------------|
B|---------------------------------------------------------|
G|--8-8-8-8-8-8-8-8--9-9-9-9-9-9-9-9-----------------------|
D|--8-8-8-8-8-8-8-8--9-9-9-9-9-9-9-9--9-9-9-9-9-9-9-9------|
A|--6-6-6-6-6-6-6-6--7-7-7-7-7-7-7-7--9-9-9-9-9-9-9-9------|
E|------------------------------------7-7-7-7-7-7-7-7------|

E|---------------------------------------------------------|
B|---------------------------------------------------------|
G|---------------------------------------------------------|
D|--4-4-4-4-4-4-4-4----------------------------------------|
A|--4-4-4-4-4-4-4-4----------------------------------------|
E|--2-2-2-2-2-2-2-2----------------------------------------|
         x4 (On fourth time, strike last chord once)

Verse 2:

E|---------------------------------------------------------|
B|---------------------------------------------------------|
G|----8----8----8----8----8----8----9----------------------|
D|---------------------------------------9-----------------|
A|----------------------77---77---99---99------------------|
E|--77---77---77---77--------------------------------------|
         x2

E|---------------------------------------------------------|
B|---------------------------------------------------------|
G|--------------9-9-9-9-9-9-9-9--11-11-11-11-11-11-11-11---|
D|--9--9--9--9--9-9-9-9-9-9-9-9--11-11-11-11-11-11-11-11---|
A|--9--9--9--9--7-7-7-7-7-7-7-7--9--9--9--9--9--9--9--9----|
E|--7--7--7--7---------------------------------------------|
         x2

Order:
Intro Part 1
Intro Part 2
Verse
Intro Part 2
Verse
Chorus
Intro Part 2
Verse 2
Chorus
Intro Part 1
Chorus
Comments