Blink 182 - Going Away To College Chords & Tabs

 

Going Away To College Chords & Tabs

Blink 182 Chords & Tabs

Version: 11 Type: Tab 0 ratings
1 star 2 stars 3 stars 4 stars 5 stars
comments

Going Away To College Tab

   
BAND  BLINK 182
ALBUM  ENEMA OF THE STATE
SONG  GOING AWAY TO COLLEGE
TABBED BY  AVE (E-mail any questions/comments to B2ave@hotmail.com)
Capo II             This tab is 100% correct.


Intro x2
e|-------------------------------------------------------------------
B|------2-2-2-2-2-0---0-0-0-0-2---2-2-2-2-2-0---0-0-0----------------
G|------2-2-2-2-2-2---2-2-2-2-2---2-2-2-2-2-2---2-2-2-0-0------------
D|------X-X-X-X-X-X---X-X-X-X-X---X-X-X-X-X-X---X-X-X-0-0------------
A|------0-0-0-0-0-0---0-0-0-0-0---0-0-0-0-0-0---0-0-0-0-0------------
E|-------------------------------------------------------------------

e|-------------------------------------------------------------------
B|------2-2-2-2-2-0--0-0-0-0-0-2--2-2-2-2-2-0--0-0-0-0-2-2-----------
G|------2-2-2-2-2-2--2-2-2-2-2-2--2-2-2-2-2-2--2-2-2-2-2-2-----------
D|------0-0-0-0-0-0--0-0-0-0-0-0--0-0-0-0-0-0--0-0-0-0-x-x-----------
A|-----------------------------------------------------0-0-----------
E|-------------------------------------------------------------------

On second time end on this 
e|--------------
B|---0----------
G|---2----------
D|---0----------
A|--------------
E|--------------

Riff A x2
e|-------------------------------------------------------------------
B|-------------------------------------------------------------------
G|------------6--------------6-------------6-------------------------
D|-----7-------------7--------------7-------------9-------9----------
A|-0-0----0-0----0-0-----0-0----5-5----5-5----7-7-----7-7------------
E|-------------------------------------------------------------------
[ Tab from: http://www.guitartabs.cc/tabs/b/blink_182/going_away_to_college_tab_ver_11.html ]
Verse (Part 1) x2             #HOLD FOR 4 BARS#
e|-------------------------------------------------------------------
B|-------------------------------------------------------------------
G|---2---------------------------------------------------------------
D|---2---------------------------------------------------------------
A|---0---------------------------------------------------------------
E|-------------------------------------------------------------------

Verse (Part 2) x2
   N.C.
e|-------------------------------------------------------------------
B|-------------------------------------------------------------------
G|------2-2-2--2-2-2-2--7-7-7-7--9-9-9-9-----------------------------
D|------2-2-2--2-2-2-2--7-7-7-7--9-9-9-9-----------------------------
A|------0-0-0--0-0-0-0--5-5-5-5--7-7-7-7-----------------------------
E|-------------------------------------------------------------------

Chorus
e|----------------------------------------------------------------
B|----------------------------------------------------------------
G|--6-6-6-6--7-7-7-7---------------------------------------------- x3
D|--6-6-6-6--7-7-7-7--7-7-7-7--2-2-2-2----------------------------
A|--4-4-4-4--5-5-5-5--7-7-7-7--2-2-2-2----------------------------
E|--------------------5-5-5-5--0-0-0-0----------------------------

e|----------------------------------------------------------------
B|----------------------------------------------------------------
G|--6-6-6-6--7-7-7-7---------------------------------------------- x1
D|--6-6-6-6--7-7-7-7--7-7-7-7--2----------------------------------
A|--4-4-4-4--5-5-5-5--7-7-7-7--2----------------------------------
E|--------------------5-5-5-5--0----------------------------------

Verse (Part 3) x2
PM~~~~~~~~~~~~~~~~~~~~~~~~~~~~~~~~~~~~~~~~~~~~~~~~~~~~~~~~~~~~~~~~~~~
e|-------------------------------------------------------------------
B|-------------------------------------------------------------------
G|-----6------6------6------6------6------6------7-------------------
D|------------------------------------------------------7------------
A|-0-0----0-0----0-0----0-0----5-5----5-5----7-7----7-7--------------
E|-------------------------------------------------------------------



INTRO
RIFF A
VERSE(PART 1)
VERSE(PART 2)
RIFF A
VERSE(PART 1)
VERSE(PART 2)
CHORUS
RIFF A 
VERSE(PART 3)
VERSE(PART 2)
CHORUS
INTRO
CHORUS
Comments