Blink 182 - Going Away To College Chords & Tabs

 

Going Away To College Chords & Tabs

Blink 182 Chords & Tabs

Version: 10 Type: Tab 0 ratings
1 star 2 stars 3 stars 4 stars 5 stars
comments

Going Away To College Tab

This is the way it is supposed to be played, try it and hear for yourself! Enjoi!

Intro, play this one 4 times or whatever feels good for you.
-----------------------------------------------------------
-----------------------------------------------------------
--5--5--5-5-5-3--3--3-3-3--3--5--5-5-5--3--3-3-3-3--3------
--6--6--6-6-6-6--6--6-6-6--6--6--6-6-6--6--6-6-6-6--6------
-----------------------------------------------------------
-----------------------------------------------------------

Then play this part after that....
-----------------------------------------------------------
-----------------------------------------------------------
-------------6-------------6-------------6-----------------
------7-------------7-------------7-------------9------9---
-0-0----0-0----0-0----0-0----5-5----5-5----7-7----7-7------
-----------------------------------------------------------
Play that part twice....

1st Verse, let this ring throughout the whole verse 
------- 
-------
-4-----
-4-----
-2-----
-------

play this twice after the verse, starts when "Don't forget to..."
-----------------------------------
-----------------------------------
-4--4-4-4/9-9-9-9/11-11-11-11------
-4--4-4-4/9-9-9-9/11-11-11-11------
-2--2-2-2/7-7-7-7/9--9--9--9-------
-----------------------------------
/ means slide up, you dont have to do it but it sounds better.

The fun part.....once again, play twice, play nice
----------------------------------------------------------
----------------------------------------------------------
-------------6-------------6-------------6----------------
------7-------------7-------------7-------------9------9--
-0-0----0-0----0-0----0-0----5-5----5-5----7-7----7-7-----
----------------------------------------------------------

2nd verse, let ring throughout whole verse
-----------
-----------
-4---------
-4---------
-2---------
-----------
[ Tab from: http://www.guitartabs.cc/tabs/b/blink_182/going_away_to_college_tab_ver_10.html ]
play twice after verse starts when "Don't depend on.....
---------------------------------
--------------------------------- Play this twice....
-4--4-4-4/9-9-9-9/11-11-11-11----
-4--4-4-4/9-9-9-9/11-11-11-11----
-2--2-2-2/7-7-7-7/9--9--9--9-----
---------------------------------

Chorus "I haven't been this scared...."
-----------------------------------------------------------
-----------------------------------------------------------
-8-8-8-8/9-9-9-9\4-4-4-4---------8-8-8-8/9-9-9-9-----------
-8-8-8-8/9-9-9-9\4-4-4-4-4-4-4-4/8-8-8-8/9-9-9-9-4-4-4-4---
-6-6-6-6/7-7-7-7\2-2-2-2-4-4-4-4/6-6-6-6/7-7-7-7-4-4-4-4---
-------------------------2-2-2-2/----------------2-2-2-2---
play this part twice, aiight!

Play the fun part again

3rd Verse, play this palm muted throughout the whole verse
------------------------------------------------------------
------------------------------------------------------------
-----6-----6-----6-----6-----7-----7-----6----6-----6-----6-
-7-7---7-7---7-7---7-7---7-7---7-7---7-7---7-7--7-7---7-7---
------------------------------------------------------------
------------------------------------------------------------

------------------------------------------
------------------------------------------
-----6-----6-----7-----7-----6-----6-6----
-7-7---7-7---7-7---7-7---7-7---7-7---7----
------------------------------------------
------------------------------------------

Play this after that part, "Ditched my lecture...."
----------------------------------
----------------------------------
-4-4-4-4/9-9-9-9/11-11-11-11------
-4-4-4-4/9-9-9-9/11-11-11-11------
-2-2-2-2/7-7-7-7/9--9--9--9-------
----------------------------------
Remember to play this twice!

Then play the chorus, "I haven't been this scared...."
Then play the intro after that
Then play the chorus once more, "I haven't been this scared...." Let the last notes ring and you have your song! I 've got some more coming on, gotta find time to work on them though. Aiight...hope you got the song on the first try, listen to the song to get it. Late.
Comments