Blink 182 - Going Away To College Chords & Tabs

 

Going Away To College Chords & Tabs

Blink 182 Chords & Tabs

Version: 3 Type: Bass Tab 0 ratings
1 star 2 stars 3 stars 4 stars 5 stars
comments

Going Away To College Bass Tab

there is no bass in the intro only guitar...

       pre-verse
G|------------------------|
D|------------------------|   2x
A|-----22222222-----------|
E|--------------0000-2222-|

          verse
G|------------------------|   2x
D|--------------2222-4444-|
A|-----22222222-----------|
E|------------------------|

G|-r----------------------|
D|-e---------2222-4444----|    2x
A|-s-2-2-2-2--------------|
E|-t----------------------|

           chorus
G|------------------------|
D|-1111-2222--------------|    3x
A|-----------2222---------|
E|----------------2222----|

G|------------------------------|
D|-1111-2222--------------------|     1x
A|-----------2222---------------|
E|----------------2-------------|(let ring)

            pre-verse
G|------------------------|
D|------------------------|     2x
A|-22222222---------------|
E|----------0000-2222-----|
[ Tab from: http://www.guitartabs.cc/tabs/b/blink_182/going_away_to_college_btab_ver_3.html ]
            verse
G|------------------------|
D|----------2222-4444-----|      2X
A|-22222222---------------|
E|------------------------|

G|r-----------------------|
D|e---------2222-4444-----|      2x
A|s-2-2-2-2---------------|
E|t-----------------------|

           chorus
G|------------------------|
D|-1111-2222--------------|      3X
A|-----------2222---------|
E|----------------2222----|

G|--------------------------------|
D|-1111-2222----------------------|       1x
A|-----------2222-----------------|
E|----------------2---------------|(let ring)

         bridge
G|-------------------------------------------|
D|------------2h4p2------------1h2-42-42-----|    1X
A|-2(let ring)------2(let ring)--------------|
E|-------------------------------------------|

        chorus
G|------------------------|
D|-1111-2222--------------|       3X
A|-----------2222---------|
E|-----------------2222---|

G|-------------------------------|
D|-1111-2222---------------------|      1X
A|-----------2222----------------|
E|-----------------2-------------|(let ring until end)
Comments