Blink 182 - Go Chords & Tabs

 

Go Chords & Tabs

Blink 182 Chords & Tabs

Version: 5 Type: Tab 0 ratings
1 star 2 stars 3 stars 4 stars 5 stars
comments

Go Tab

Intro

E --------------------------------------------------------------------- 2x
B -------------------------10-10-10-10-10-10-10-10---------------------
G -9--9--9--9--9--9--9--9--10-10-10-10-10-10-10-10---------------------
D -x--x--x--x--x--x--x--x--10-10-10-10-10-10-10-10---------------------
A -7--7--7--7--7--7--7--7---8--8--8--8--8--8--8--8---------------------
E -8--8--8--8--8--8--8--8----------------------------------------------

Verse

E --------------------------------------------------------------------- 2x
B ---------------------------------------------------------------------
G ---------------------------------------------------------------------
D ---------------------------------------------------------------------
A -333333333333---2h3-5------------------------------------------------
E -----------------------111111111111----------------------------------

Chorus
[ Tab from: http://www.guitartabs.cc/tabs/b/blink_182/go_tab_ver_5.html ]
E --------------------------------------------------------------------- 4x
B ---------------------------------------------------------------------
G ---------------------------------------------------------------------
D -7-7-7-7-7--3-3-3-3-3------------------------------------------------
A -7-7-7-7-7--3-3-3-3-3------------------------------------------------
E -5-5-5-5-5--1-1-1-1-1------------------------------------------------


Solo Thing

E ---------------------------------------------------------------------
B ---------------------------------------------------------------------
G ---------------------------------------------------------------------
D ---------------------------------------------------------------------
A -3~5~7---3-2-3~--3-5-3-2-3-------------------------------------------
E ---------------------------------------------------------------------

Ending

E ---------------------------------------------------------------------
B ---------------------------------------------------------------------
G -9-9-9-9-9-9-9-9---5-5--7-7--9-9-10-10-------------------------------
D -x-x-x-x-x-x-x-x---x-x--x-x--x-x--x--x-------------------------------
A -7-7-7-7-7-7-7-7---3-3--5-5--7-7--8--8-------------------------------
E -8-8-8-8-8-8-8-8-----------------------------------------------------

End On

E ---------------------------------------------------------------------
B ---------------------------------------------------------------------
G -5-------------------------------------------------------------------
D -x-------------------------------------------------------------------
A -3-------------------------------------------------------------------
E ---------------------------------------------------------------------
Comments