Blink 182 - Go Chords & Tabs

 

Go Chords & Tabs

Blink 182 Chords & Tabs

Version: 2 Type: Tab 0 ratings
1 star 2 stars 3 stars 4 stars 5 stars
comments

Go Tab

                                 GO!




E------------------------------------------------------------------!
G------------------------------------------------------------------!
D----------------------------------10-10-10-10-10-10-10-10-10-10-10!
A-10-10-10-10-10-10-10-10-10-10-10--8-8-8-8-8-8-8-8-8-8-8-8-8-8-8-8!
E--8-8-8-8-8-8-8-8-8-8-8-8-8-8-8-8---------------------------------!

[ Tab from: http://www.guitartabs.cc/tabs/b/blink_182/go_tab_ver_2.html ]
E----------------------------------------------!
B----------------------------------------------!
G----------------------------------------------!
D----------------------------------------------! X(2)
A--3-3-3-3-3-3-3-3-3-3-3-3-2-5-----------------!
E-------------------------------1-1-1-1-1-1-1-1!



E----------------------------------!
B----------------------------------!
G----------------------------------!
D----------------------------------!X(2)
A--7-7-7-7-7-7-7-7--3-3-3-3-3-3-3-3!
E--5-5-5-5-5-5-5-5--3-3-3-3-3-3-3-3!
There i more but i am tuuu lazy tu rite the rest!!!!!!!!!!!!!
Comments