Blink 182 - Go Chords & Tabs

 

Go Chords & Tabs

Blink 182 Chords & Tabs

Version: 10 Type: Tab 0 ratings
1 star 2 stars 3 stars 4 stars 5 stars
comments

Go Tab

   
--------------------------------------------------------------------------------------------------
Blink 182-Blink 182
2003
Guitar Tabs
Tabed by Jacob (sk8aman23)
Go
Standerd tuning
Two guitars in this one, no getting around that sorry
A really easy song though. IM calling the whole first
part the intro/verse/chours, because the whole thing 
is repeated. its just easier that way

Guitar 1
Intro/verse/Chours
E|-----------------------------------------------|
B|-----------------------------------------------|
G|-----------------------------------------------| 2x
D|--2-2-2-2-2-2-2-2-2----------------------------|
A|--3-3-3-3-3-3-3-3-3-3-3-3-3-3-3-3-3-3-3--------| 
E|--------------------1-1-1-1-1-1-1-1-1-1--------|

Guitar 1
Intro/verse/chours part 2
E|------------------------------------------------------------------|
B|------------------------------------------------------------------|
G|------------------------------------------------------------------|
D|------------------------------------------------------------------|
A|-3-3-3-3-3-3-3-3-3-3-3-3-3-3-3-5-5--------------------------------| 2x
E|-----------------------------------1-1-1-1-1-1-1-1-1-1-1-1-1-1-1--|

Guitar 1
Intro/verse/chours part 3
E|------------------------------------------------|
B|-1-1-1-1-1-1-1-1-1-1----------------------------|
G|-2-2-2-2-2-2-2-2-2-2----------------------------| 2x
D|-2-2-2-2-2-2-2-2-2-2----------------------------|
A|-0-0-0-0-0-0-0-0-0-0-3-3-3-3-3-3-3-3-3-3--------| 
E|---------------------1-1-1-1-1-1-1-1-1-1--------|

Now repeat all 3 parts and then move on to the interlude
the second guitar comes in here
Guitar 1
Interlude
 E|------------------------------------------------------------------|
 B|------------------------------------------------------------------|
 G|------------------------------------------------------------------|
 D|-5----------------------------------------------------------------|
 A|-3-3-3-3-3-3-3-3-3-3-3-3-3-3-3-0-0--------------------------------| 2x
 E|-----------------------------------1-1-1-1-1-1-1-1-1-1-1-1-1-1-1--|
PM    . . . . . . . . . . . . . . . . . . . . . . . . . . . . . . .
[ Tab from: http://www.guitartabs.cc/tabs/b/blink_182/go_tab_ver_10.html ]
Guitar 2
Interlude
E|-------------------------------------|
B|-------------------------------------|
G|-------------------------------------|
D|------2------------------------------|
A|-3h5-------3----3p2h3----5---3-------| 
E|-------------------------------------|

Guitar 2
Interlude part 2
E|-------------------------------------|
B|-------------------------------------|
G|-------------------------------------|
D|-------------------------------------|
A|-3h5---p3--------3p2----3----3-------| 
E|-------------------------------------|
                               H
Hit some wicked feedback off this harmonic, just
hit the harmonic then hold your guitar REALLY close
you uour amp, it'll come. Hold it through out the
next verse.

Guitar 1
First chord played on the silent chours
E|---|
B|---|
G|---|
D|-2-|
A|-0-| 
E|---|

Now play the intro/verse/chours part 3 ONCE
Here comes the outro, 2 guitars again
Guitar 1
E|-----------------------------------------------------------|
B|-----------------------------------------------------------|
G|-9-9-9-9-9-9-9-9-9-9-5-5-5-5-7-7-7-7-9-9-9-9-10-10-10-10-9-|
D|-x-x-x-x-x-x-x-x-x-x-x-x-x-x-x-x-x-x-x-x-x-x--x--x--x--x-x-|
A|-7-7-7-7-7-7-7-7-7-7-3-3-3-3-5-5-5-5-7-7-7-7--8--8--8--8-7-| 3x
E|-----------------------------------------------------------|

Guitar 2
E|----------------------------------------------------------|
B|----------------------------------------------------------|
G|------------------------5-5-5-5-5-7-7-7-9-9-9-10-10-10-10-| 3x
D|--2-2-2-2-2-2-2-2-2-0-0-x-x-x-x-x-x-x-x-x-x-x--x--x--x--x-|
A|--3-3-3-3-3-3-3-3-3-0-0-3-3-3-3-3-5-5-5-7-7-7--8--8--8--8-| 
E|----------------------------------------------------------|

Now play this the forth time 'round for the complete outro

Guitar 1
E|-------------------------------------|
B|-------------------------------------|
G|-9--9--9--9--9--9--9--9--9--9--9-----|
D|-x--x--x--x--x--x--x--x--x--x--x-----|
A|-7--7--7--7--7--7--7--7--7--7--9---1-| 
E|-----------------------------------3-|

Guitar 2
E|-------------------------------------|
B|-------------------------------------|
G|-------------------------------------|
D|-2--2--2--2--2--2--2--2--2--2--2-----|
A|-3--3--3--3--3--3--3--3--3--3--3---1-| 
E|-----------------------------------3-|

Rock on, that was easy, cant say the some for the next
few songs though.....
Comments