Blink 182 - Go Easy Version Chords & Tabs

 

Go Easy Version Chords & Tabs

Blink 182 Chords & Tabs

Version: 1 Type: Tab 1 rating
1 star 2 stars 3 stars 4 stars 5 stars
comments

Go Easy Version Tab

Intro
1--------------------------------------
2--------------------------------------
3--------------------------------------
4---5-------------5--------------------
5---3-X16--3------3-X16--3-------------
6----------1-X16---------1-X16---------   

Verse
1--------------------------------------
2--------------------------------------
3--------------------------------------
4---5-------------5--------------------
5---3-X16--3------3-X16--3-------------
6----------1-X16---------1-X16---------   
[ Tab from: http://www.guitartabs.cc/tabs/b/blink_182/go_easy_version_tab.html ]
Chorus
1--------------------------------------
2--------------------------------------
3--------------------------------------
4--------------------------------------
5---7-----3-----7-----3----------------
6---5-X8--1-X8--5-X8--1-X8-------------

Solo
1--------------------------------------
2--------------------------------------
3--------------------------------------
4--------------------------------------
5---3-5-7-3-2-3-5-3-3-5-3-3-2-3--------
6--------------------------------------

Intro 
Verse
Chorus
Intro 
Verse 
Chorus
Solo
(Pause)
Chorus
Intro 
Intro
Comments