Blink 182 - Go Chords & Tabs

 

Go Chords & Tabs

Blink 182 Chords & Tabs

Version: 2 Type: Bass Tab 0 ratings
1 star 2 stars 3 stars 4 stars 5 stars
comments

Go Bass Tab

   
Tuning:E,A,D,G
*= let ring

guitar intro 
[ Tab from: http://www.guitartabs.cc/tabs/b/blink_182/go_btab_ver_2.html ]
verse:
G|--------------------------------------------------------------------------|
D|---9---9---9-999-7-6-----6--6-6-66-4-6------------------------------------|
A|77--77---77-----------44--44----------------------------------------------|
E|--------------------------------------------------------------------------|
i got no regret right now...
chorus:
G|--------------------------------------------------------------------------|
D|--2222--------------------------------------------------------------------|
A|------22222--44444--00000-------------------------------------------------|
E|0*------------------------------------------------------------------------|
fate fell short this time...
verse:
G|--------------------------------------------------------------------------|
D|---9---9---9-999-7-6-----6--6-6-66-4-6------------------------------------|
A|77--77---77-----------44--44----------------------------------------------|
E|--------------------------------------------------------------------------|
smiling from ear to ear....
chorus:
G|--------------------------------------------------------------------------|
D|--2222--------------------------------------------------------------------|
A|------22222--44444--00000-------------------------------------------------|
E|0*------------------------------------------------------------------------|
tom sings fate fell short this time w/o mic and after that let ring:
G|--------------------------------------------------------------------------|
D|-2*-----------------------------------------------------------------------|
A|--------------------------------------------------------------------------|
E|-0*-----------------------------------------------------------------------|
then palm mute:
G|--------------------------------------------------------------------------|
D|2222----------------------------------------------------------------------|
A|----2222--44444---00000---------------------------------------------------|
E|--------------------------------------------------------------------------|
look to the past and remember...
final chorus:
G|--------------------------------------------------------------------------|
D|222222--------------------------------------------------------------------|
A|------222222-44444--00000-------------------------------------------------|
E|--------------------------------------------------------------------------|
fate fell shorth this time....
Comments