Blink 182 - Give Me One Good Reason Chords & Tabs

 

Give Me One Good Reason Chords & Tabs

Blink 182 Chords & Tabs

Version: 4 Type: Tab 0 ratings
1 star 2 stars 3 stars 4 stars 5 stars
comments

Give Me One Good Reason Tab

Artist:Blink 182
Title:Give Me One Good Reason
Album:Take of Your Pants And Jacket
Tabber:Niklas Hanson SWEDEN
Email:femkronan@hotmail.com

(T1)INTRO:

e|---------------------------------------------------|
H|---------------------------------------------------|
G|----1---1-------------------1---1------------------|
D|----------2---4-2-4-2---2---------2---4-2-4-2------|
A|--2---2-----2-------------2---2-----2--------------|
E|---------------------------------------------------|

e|---------------------------------------------------|
H|---------------------------------------------------|
G|-----1---1-------------------1---1-----------------|
D|-2-----2---2-2---2-2---2-2-----2---2-2---4-4---4-4-|
A|---4-----------0-----0-----4-----------2-----2-----|
E|---------------------------------------------------|

e|---------------------------------------------------|
H|---------------------------------------------------|
G|-2-2-2-2-2-----------------------------------------|
D|---------------------------------------------------|
A|---------------------------------------------------|
E|---------------------------------------------------|


(T2)VERSE:                                       plays X2
   x5  x5  x5  x5  x5  x5  x5 x5  x5  (T3)
e|-------------------------------|-------------------|
H|-------------------------------|-------------------|
G|------4-------4---6---2---6---4|---1---------------|
D|--2---4---2---4---6---2---6---4|-2---------1-2-2---|
A|--2---2---2---2---4---0---4---2|-2---2-2-2---------|
E|--0-------0--------------------|-0-----------------|

Mum and dad they quite donīt understand it
All the kids they laugh as if they planned it
Why do gils wonīt to pierce their nose
And walk around in torn pantyhose
Oh Yeah!
::play T3::

VERSE 2:
I like the ones who say they listen to the punkrock
I like the kids who fight against how they were brought up
They hate the trends and think itīs fucked to care
Itīs cool when they piss people of with what they wear
Oh Yeah!
::play T3::

Chorus:
(T4)                             plays X2
   x8  x8 x16      x8  x8  x8  x8
e|---------------------------------------|
H|---------------------------------------|
G|---------------------------------------|
D|--2---6---9-------2---6---9---7--------|
A|--2---6---9-------2---6---9---7--------|
E|--0---4---7-------0---4---7---5--------|

Chorus:
So! Give me one good reason
Why we need to be like them
Kids will have fun and offend
They donīt wonīt to and donīt fit in

INTRO:
e|---------------------------------------------------|
H|---------------------------------------------------|
G|----1---1-------------------1---1------------------|
D|----------2---4-2-4-2---2---------2---4-2-4-2------|
A|--2---2-----2-------------2---2-----2--------------|
E|---------------------------------------------------|

e|---------------------------------------------------|
H|---------------------------------------------------|
G|-----1---1-------------------1---1-----------------|
D|-2-----2---2-2---2-2---2-2-----2---2-2---4-4---4-4-|
A|---4-----------0-----0-----4-----------2-----2-----|
E|---------------------------------------------------|

e|---------------------------------------------------|
H|---------------------------------------------------|
G|-2-2-2-2-2-----------------------------------------|
D|---------------------------------------------------|
A|---------------------------------------------------|
E|---------------------------------------------------|

[ Tab from: http://www.guitartabs.cc/tabs/b/blink_182/give_me_one_good_reason_tab_ver_4.html ]
(T2)VERSE:                                       plays X2
   x5  x5  x5  x5  x5  x5  x5 x5  x5  (T3)
e|-------------------------------|-------------------|
H|-------------------------------|-------------------|
G|------4-------4---6---2---6---4|---1---------------|
D|--2---4---2---4---6---2---6---4|-2---------1-2-2---|
A|--2---2---2---2---4---0---4---2|-2---2-2-2---------|
E|--0-------0--------------------|-0-----------------|

VERSE 3:
Hate the jocks the preps the hippie fucking scumbags
Heavy metallers with their awful pussy hair bands
Counting seconds until we can get away
Ditching school almost every singel day 
Oh Yeah!
::Then play T3 4 times::

Chorus:
(T4)                             plays X2
   x8  x8 x16      x8  x8  x8  x8
e|---------------------------------------|
H|---------------------------------------|
G|---------------------------------------|
D|--2---6---9-------2---6---9---7--------|
A|--2---6---9-------2---6---9---7--------|
E|--0---4---7-------0---4---7---5--------|

Tom Solo:

e|------------------------------------------------|
H|------------------------------------------------|
G|-------------1-1-1-2-2-2-1-1--------------------|
D|-2-2-2-4-4-4-----------------2--2-2-2-----------|
A|--------------------------------------2-2-2-2-2-|
H|------------------------------------------------|

e|------------------------------------------------|
H|------------------------------------------------|
G|---------------------------------1-1-1-2-2-2-1-1|
D|-2-2-2--------------2-2-2-4-4-4-----------------|
A|-------2-2-2-2-2--------------------------------|
E|------------------------------------------------|

e|------------------------------------------------|
H|------------------------------------------------|
G|-----------1--------------1---------------------|
D|-2-4-4-4-4---2-2--4-4-4-4---2-2-----------------|
A|------------------------------------------------|
E|------------------------------------------------|


e|------------------------------------------------|
H|------------------------------------------------|
G|-------------1-1-1-2-2-2-1-1--------------------|
D|-2-2-2-4-4-4-----------------2--2-2-2-----------|
A|--------------------------------------2-2-2-2-2-|
H|------------------------------------------------|

e|------------------------------------------------|
H|------------------------------------------------|
G|---------------------------------1-1-1-2-2-2-1-1|
D|-2-2-2--------------2-2-2-4-4-4-----------------|
A|-------2-2-2-2-2--------------------------------|
E|------------------------------------------------|

e|------------------------------------------------|
H|------------------------------------------------|
G|-----------1--------------1---------------------|
D|-2-4-4-4-4---2-2--4-4-4-4---2-1-2---------------|
A|------------------------------------------------|
E|------------------------------------------------|

Chorus:
(T4)                             plays X2
   x8  x8 x16      x8  x8  x8  x8
e|---------------------------------------|
H|---------------------------------------|
G|---------------------------------------|
D|--2---6---9-------2---6---9---7--------|
A|--2---6---9-------2---6---9---7--------|
E|--0---4---7-------0---4---7---5--------|

Ends on:

D|--2--|
A|--2--|
E|--0--|


Iīm not sure if this is the right tabs.I changed the Intro a bit,I think it sounds better 
but! you must have the right rhytm.

Thank you!           ..........Blink 182 RULEZ.,.,.,.,!!!!

Email me: femkronan@hotmail.com
Comments