Blink 182 - Give Me One Good Reason Chords & Tabs

 

Give Me One Good Reason Chords & Tabs

Blink 182 Chords & Tabs

Version: 3 Type: Tab 0 ratings
1 star 2 stars 3 stars 4 stars 5 stars
comments

Give Me One Good Reason Tab

Song:Give Me One Good Reason
Artist:Blink-182
Standard Tuning
I was to lazy to do the whole song.

|--------------------------------------------------------
|--------------------------------------------------------
|--------------------------------------------------------
|--------4-----4-0-----0-----0----------4-----4-0-----0--
|------5-----5-------7-----7-----7----5-----5-------7----
|----5-----5-------5-----5-----5----5-----5-------5------
[ Tab from: http://www.guitartabs.cc/tabs/b/blink_182/give_me_one_good_reason_tab_ver_3.html ]
|--------------------------------------------------------
|--------------------------------------------------------
|--------------------------------------------------------
|-----0----------4-----4-0----0-----0-----------0-----0--
|---7-----7----5-----5------7-----7-----7-----9-----9----
|-5-----5----5-----5------5-----5-----5-----7-----7------

|--------------------------------------------------------
|--------------------------------------------------------
|--------------------------------------------------------
|-----0-----------0-----0-----------0-----0--------------
|---9-----9-----5-----5-----5-----9-----9-----9----------
|-7-----7-----3-----3-----3-----7-----7-----7------------
 
Well thats it.
Comments