Blink 182 - Genie In A Bottle Live Chords & Tabs

 

Genie In A Bottle Live Chords & Tabs

Blink 182 Chords & Tabs

Version: 1 Type: Bass Tab

Genie In A Bottle Live Bass Tab

   
     GENIE IN A BOTTLE (LIVE) 
                             Blink 182

Words by Christina Aguilera

Music by Blink 182
Arranged by Blink 182
Transcribed by Aaron Hetherington

   Intro
    Q=140            1.,2.,3.
    G                D                C                             B
   4/4
    Gtr I
                                                                       4x
||-----------------|----------------|----------------|-----------------||
||o----------------|----------------|----------------|----------------o||
||o----------------|-5--5-5-5-5-5-5-|-3--3-3-3-3-3-3-|-3--3-3-3-3-3-2-o||
||--3--3-3-3-3-3-3-|----------------|----------------|-----------------||

[ Tab from: http://www.guitartabs.cc/tabs/b/blink_182/genie_in_a_bottle_live_btab.html ]
  4.
  D            B   C
|----------------|----------|--------|
|----------------|----------|--------|
|-5--5-5-5-5-5-2-|-3--------|-(3)----|
|----------------|----------|--------|


   Verse
    G                D                C
||-----------------|----------------|----------------|------------------||
||o----------------|----------------|----------------|-----------------o||
||o----------------|-5--5-5-5-5-5-5-|-3--3-3-3-3-3-3-|-3--3-3-3-3-3-3--o||
||--3--3-3-3-3-3-3-|----------------|----------------|------------------||


  C
|----------|------------|------------|--------*|
|----------|------------|------------|--------*|
|-3--------|-(3)--------|-(3)--------|-(3)----*|
|----------|------------|------------|--------*|