Blink 182 - Fucked Up My Life Chords & Tabs

 

Fucked Up My Life Chords & Tabs

Blink 182 Chords & Tabs

Version: 2 Type: Tab 0 ratings
1 star 2 stars 3 stars 4 stars 5 stars
comments

Fucked Up My Life Tab

This Sounds really good, but is very easy to play...all power chords except the Interlude. 

This is a little piece played in parts of the song with a second guitar.
e|---------|
b|---0-----|
g|-----2---|
d|-2-------|
a|---------|
e|---------|

Intro - You can figure out the strumming pattern really easily
E------------------------------------------------------
b------------------------------------------------------
g---------7----------REPEAT THIS TWICE-----------------
d-7---4---7--------------------------------------------
a-7---4---5--------------------------------------------
e-5---2------------------------------------------------

Verse -

e------------------------------------------------------
b------------------------------------------------------
g---------9---7-----------REPEAT TWICE-----------------
d-7---4---9---7----------------------------------------
a-7---4---7---5----------------------------------------
e-5---2------------------------------------------------

Repeat Intro

Repeat Verse

Chorus - Exactlly the same as the verse but different strumming pattern
[ Tab from: http://www.guitartabs.cc/tabs/b/blink_182/fucked_up_my_life_tab_ver_2.html ]
e-------------------------------------------------------
b-------------------------------------------------------
g---------9---7------REPEAT TWICE-----------------------
d-7---4---9---7-----------------------------------------
a-7---4---7---5-----------------------------------------
e-5---2-------------------------------------------------

Repeat Intro

Repeat Verse

Repeat Chorus

Interlude-

e|-------------------|----|---------------------|----|-
b|-------------------|----|---------------------|----|-
g|-----9---------6---|----|-------9---------6---|----|-
d|---7---9-----7---7-|-x2-|-----7---7-----7---7-|-x2-|-
a|-------------------|----|---5---------5-------|----|-
E|-5---------5-------|----|---------------------|----|-

e--------------------|-------------------|----|------|-
b--------------------|-------------------|----|------|-
g------9----------6--|------9---------6--|---6|--x3--|-
d----7---9------7---7|----7---7-----7---7|--7-|------|-
a--------------------|-------------------|----|------|-
e-5----------5-------|-7---------7-------|5---|------|-

e--------------
b--------------
g-7------------
d-7---x12------
a-5------------
e--------------

After Interlude - 

e-----------------------------------------------------|-
b-----------------------------------------------------|-
g--------7---------------5--------------9------7------|-
d-7------7--x14--7-------7--x14--7------9-x14--7--x14-|-
a-7--x16-5-------7--x16--5-------7-x21--7------5------|-
e-5--------------5---------------5--------------------|-

Repeat Intro ---- End On

e----------
b----------
g----------
d--7-------
a--7-------
e--5-------

Comments