Blink 182 - Fuck A Dog Chords & Tabs

 

Fuck A Dog Chords & Tabs

Blink 182 Chords & Tabs

Version: 4 Type: Tab 0 ratings
1 star 2 stars 3 stars 4 stars 5 stars
comments

Fuck A Dog Tab

blink 182, fuck a dog.
 Tabbed by martial, TakOffUPantJackt@aol.com.
  
----------------------------------------------------------------------
   BLINK-182                 T.O.Y.P.A.J.                      2001

   15 -> FUCK A DOG
         ( ACOUSTIC )                                    

   My hear is not perfect so if you find any errors or if you have
     any comments don\'t hesitate e-mail me I answer every mail :
                       TakOffUPantJackt@aol.com
----------------------------------------------------------------------


Repeat during all the song
[ Tab from: http://www.guitartabs.cc/tabs/b/blink_182/fuck_a_dog_tab_ver_4.html ]
E|--------------------------------------------------------------------
B|-----0---------------------------------------------------------------
G|--------0-----0------------0--------2-----------------------------------
D|--0--------0---------------------0-------------------------------------
A|------------------------3-----3---------------------------------------
E|--------------------------------------------------------------------



        I wanna fuck a dog in the ass. 
                        [he wants to fuck a dog in the ass]
        I wanna fuck a dog. 
        That\'s right kids.
        I tried to fuck your mom in the ass 
        Tried to fuck your dad in the ass 
        Could only find the dog, and his ass 
        
        We wanna fuck a dog in the ass 
        We wanna fuck a dog in the ass 
        We wanna fuck a dog
        
        I tried to fuck a fucken pirate in the ass 
                        [arg me and me first mate a scervy ker]
        Tried to fuck a fucken pirate 
        but i found the dog 
                        [arg that was no pirate it was my own sister]
                        [it\'s a Mexican pirate]
        
        We wanna fuck a dog in the ass 
        We wanna fuck a dog in the ass 
        
        wanna fuck a fuckin dog 
        
        Fuck you.  
:: Ultimate Guitar Archive :: 
http://www.ultimate-guitar.com 



Comments