Blink 182 - Fuck A Dog Chords & Tabs

 

Fuck A Dog Chords & Tabs

Blink 182 Chords & Tabs

Version: 10 Type: Tab 0 ratings
1 star 2 stars 3 stars 4 stars 5 stars
comments

Fuck A Dog Tab

-----------------------------------------------------------------------------
			     fuck a dog-blink 182
-----------------------------------------------------------------------------
tabbed by jake
email me at jakedask8r@aol.com for q's or stuff (im single right now)

Tuning:standard

i love this song & saw that no one had it totaly correct. im 100% sure its right.
listen to it close to hear it.
[ Tab from: http://www.guitartabs.cc/tabs/b/blink_182/fuck_a_dog_tab_ver_10.html ]
e|------------------------------------------------|
b|---0--------------------------------------------|
g|-----0---0----0-----2--------0----------0-----2-|
d|-0-----0----------0---(x19)--0-(wait)-------0---|
a|-----------(3)--3------------3--------3---3-----|
e|------------^-----------------------------------|
              ^(dont play on 3rd time)
e|------------------------------------------------------------|
b|---0-----------------------------------0--------------------|
g|-----0---0----0-----2-------0------------0---0---0-----2--0-|
d|-0-----0----------0---(x2)--0-(wait)-0-----0---------0----0-|
a|------------3---3-----------3------------------3---3------3-|
e|------------------------------------------------------------|
Comments