Blink 182 - First Date Chords & Tabs

 

First Date Chords & Tabs

Blink 182 Chords & Tabs

Version: 8 Type: Tab 0 ratings
1 star 2 stars 3 stars 4 stars 5 stars
comments

First Date Tab

   
Blink 182, First Date.
 Tabbed by Tom, tawadalla@hotmail.com.
  
BLINK 182
FIRST DATE
TAKE OFF YOUR PANTS AND JACKET
THIS IS THE 100% CORRECT VERSION

INTRO RIFF

E-0----------------------------------------
B---1---1---3-1--1---3-1--1---3--1---0----------------
G-----0- 0------0--0-----0-0-------0---0------------
D----------------------------------------------------
A----------------------------------------------------
E---------------------------------------------------

P.M. DURING 2nd HALF OF VERSE


G------
D-5-5-5--
A-5-5-5---
E-3-3-3--

CHORUS
[ Tab from: http://www.guitartabs.cc/tabs/b/blink_182/first_date_tab_ver_8.html ]
CCC        BBB            A             F      G
   Let's go   Don't wait  This night is almost over

C       B        A              F        G
Forever and ever let's make this last forever

P.M. AFTER 2ND CHORUS

C/Em/F/G

E-------------------------------------------------
B-------------------------------------------------
G-55555555--9999--55-10101010-55--7777777-----------
D-xxxxxxxx--xxxx--xx-xxxx-----xx--xxxxxxx-------------
A-33333333--7777--33-8888-----33--5555555-------------
E-------------------------------------------------

CHORUS

THAT'S IT, ITS A PRETTY EASY SONG. IF YOU HAVE ANY QUESETIONS E-MAIL ME. 
:: Ultimate Guitar Archive :: 
http://www.ultimate-guitar.com 



Comments