Blink 182 - First Date Chords & Tabs

 

First Date Chords & Tabs

Blink 182 Chords & Tabs

Version: 5 Type: Tab 2 ratings
1 star 2 stars 3 stars 4 stars 5 stars
comments

First Date Tab

   
Title: First Date
Author: Blink 182
Album: Take your Pants off and Jacket
Tabbed by: missle_15
Email: missle_15@hotmail.com
Standard tuning (EADGBe)

This is the CORRECT version

Legend: h – hammer on
              p – Pull off
              / - slide up
              \ - slide down
              pm – palm mute
              b – bend
	     ++ - repeat back to beginning of bar 


Intro (Slight distortion)
e--0---------------------------------------------------------
B----1-----1-----3--1-----1-----3--1-----1-----3--1-----0—1--
G-------0-----0--------0-----0--------0-----0--------0-------
D------------------------------------------------------------
A------------------------------------------------------------
E------------------------------------------------------------
								
		                                             Hold...
e--0----------------------------------------------------------------
B----1-----1-----3--1-----1-----3--1-----1-----3--1-----0—1---------
G-------0-----0--------0-----0--------0-----0--------0-----------5--
D----------------------------------------------------------------5--
A----------------------------------------------------------------3--
E-------------------------------------------------------------------


e--------------------------------------------------------------------
B--------------------------------------------------------------------
G--5-5-5-----4-4-4-----2-2-2--2-2------------------------------------    x2
D--5-5-5-----5-5-5-----2-2-2--2-2----3-3-/-4-4-----------------------    
A--3-3-3-----2-2-2-----0-0-0--0-0----3-3-/-4-4-----------------------
E------------------------------------1-1-/-2-2-----------------------


e--------------------------------------------------------------------
B--------------------------------------------------------------------
G--5-5-5--5-5-----4-4-4--4-4-----2-2-2--2-2--------------------------    x2
D--5-5-5--5-5-----5-5-5--5-5-----2-2-2--2-2----3-3-/-4-4-------------
A--3-3-3--3-3-----2-2-2--2-2-----0-0-0--0-0----3-3-/-4-4-------------
E----------------------------------------------1-1-/-2-2-------------


e--0---------------------------------------------------------
B----1-----1-----3--1-----1-----3--1-----1-----3--1-----0—1--
G-------0-----0--------0-----0--------0-----0--------0-------
D------------------------------------------------------------
A------------------------------------------------------------
E------------------------------------------------------------


						        Hold...
e--0----------------------------------------------------------------
B----1-----1-----3--1-----1-----3--1-----1-----3--1-----0—1---------
G-------0-----0--------0-----0--------0-----0--------0-----------5--
D----------------------------------------------------------------5--
A----------------------------------------------------------------3--
E-------------------------------------------------------------------

[ Tab from: http://www.guitartabs.cc/tabs/b/blink_182/first_date_tab_ver_5.html ]
e--------------------------------------------------------------------
B--------------------------------------------------------------------
G--5-5-5-----4-4-4-----2-2-2--2-2------------------------------------    x2
D--5-5-5-----5-5-5-----2-2-2--2-2----3-3-/-4-4-----------------------    
A--3-3-3-----2-2-2-----0-0-0--0-0----3-3-/-4-4-----------------------
E------------------------------------1-1-/-2-2-----------------------


e--------------------------------------------------------------------
B--------------------------------------------------------------------
G--5-5-5--5-5-----4-4-4--4-4-----2-2-2--2-2--------------------------    x2
D--5-5-5--5-5-----5-5-5--5-5-----2-2-2--2-2----3-3-/-4-4-------------
A--3-3-3--3-3-----2-2-2--2-2-----0-0-0--0-0----3-3-/-4-4-------------
E----------------------------------------------1-1-/-2-2-------------

Pm...
e--------------------------------------------------------------------
B--------------------------------------------------------------------
G--5-5-5-5-5-5-5-5---------------------------------------------------    x2
D--5-5-5-5-5-5-5-5---2-2-2-2-2-2-2---3-3-3-3-3-3-3-/-5-5-5-5-5-5-5---
A--3-3-3-3-3-3-3-3---2-2-2-2-2-2-2---3-3-3-3-3-3-3-/-5-5-5-5-5-5-5---
E--------------------0-0-0-0-0-0-0---1-1-1-1-1-1-1-/-3-3-3-3-3-3-3---


e--------------------------------------------------------------------------------------++
B--------------------------------------------------------------------------------------++
G--5-5-5-5-5-5-5-5--/--9-9-9-9--\--5-5-5--/-10-10-10-10--\--5-5-5--/--7-7-7-7-7-7-7-7-\++  x4
D--5-5-5-5-5-5-5-5--/--9-9-9-9--\--5-5-5--/-10-10-10-10--\--5-5-5--/--7-7-7-7-7-7-7-7-\++
A--3-3-3-3-3-3-3-3--/--7-7-7-7--\--3-3-3—-/-8--8--8--8---\--3-3-3--/--5-5-5-5-5-5-5-5-\++
E--------------------------------------------------------------------------------------++


e--------------------------------------------------------------------
B--------------------------------------------------------------------
G--5-5-5-----4-4-4-----2-2-2--2-2------------------------------------    x2
D--5-5-5-----5-5-5-----2-2-2--2-2----3-3-/-4-4-----------------------    
A--3-3-3-----2-2-2-----0-0-0--0-0----3-3-/-4-4-----------------------
E------------------------------------1-1-/-2-2-----------------------


e--------------------------------------------------------------------
B--------------------------------------------------------------------
G--5-5-5--5-5-----4-4-4--4-4-----2-2-2--2-2--------------------------    x4
D--5-5-5--5-5-----5-5-5--5-5-----2-2-2--2-2----3-3-/-4-4-------------
A--3-3-3--3-3-----2-2-2--2-2-----0-0-0--0-0----3-3-/-4-4-------------
E----------------------------------------------1-1-/-2-2-------------

   Hold...
e--------------------------------------------------------------------
B--------------------------------------------------------------------
G---5----------------------------------------------------------------
D---5----------------------------------------------------------------
A---3----------------------------------------------------------------
E--------------------------------------------------------------------
Any questions, email me.
That’s it, the CORRECT version...Enjoy.

Comments