Blink 182 - First Date Chords & Tabs

 

First Date Chords & Tabs

Blink 182 Chords & Tabs

Version: 23 Type: Tab

First Date Tab

I just bought the book of the greatist hits and this should be right
if this is not how to right tabs, plz tell me because this is my first one
[ Tab from: http://www.guitartabs.cc/tabs/b/blink_182/first_date_tab_ver_23.html ]
E-0-----------------------------------------------
B---1---1-----3-1---1----3--1---1------3--1----0--
G-----0----0------0---0-------0----0---------0---0
D-------------------------------------------------
A-------------------------------------------------
E-------------------------------------------------


E-0-------------------------------------------------
B---1---1-----3-1---1----3--1---1------3--1----0---0
G-----0----0------0---0-------0----0---------0---0--
D---------------------------------------------------
A---------------------------------------------------
E---------------------------------------------------