Blink 182 - First Date Chords & Tabs

 

First Date Chords & Tabs

Blink 182 Chords & Tabs

Version: 14 Type: Tab 0 ratings
1 star 2 stars 3 stars 4 stars 5 stars
comments

First Date Tab

tuning standard 

------------------------------------------------------------
------------------------------------------------------------
------------------------------------------------------------
-5-5-5-5-5-5-5-5--------------------------------------------
-3-3-3-3-3-3-3-3--------------------------------------------
-----------------0-0-0-0-0-0-0-0--1-1-1-1-1-1-1-1-----------

------------------------------------------------------------
------------------------------------------------------------
------------------------------------------------------------
------------------------------------------------------------
------------------3-3-3-3-3-3-3-3---------------------------
-3-3-3-3-3-3-3-3------------------0-0-0-0-0-0-0-0-----------
[ Tab from: http://www.guitartabs.cc/tabs/b/blink_182/first_date_tab_ver_14.html ]
------------------------------------------------------------
------------------------------------------------------------
------------------------------------------------------------
------------------------------------------------------------
------------------------------------------------------------
-1-1-1-1-1-1-1-1--3-3-3-3-3-3-3-3---------------------------
play all of that part palm muted\

------------------------------------------------------------
------------------------------------------------------------
-5-5-5-5-5-5-5-5-9-9-9-9-5-5-5-10-10-10-10-5-5-5-7-7-7-7-7-7
-x-x-x-x-x-x-x-x-x-x-x-x-x-x-x-x-x-x-x-x-x-x-x-x-x-x-x-x-x-x
-3-3-3-3-3-3-3-3-7-7-7-7-3-3-3-8-8-8-8-8-8-3-3-3-5-5-5-5-5-5

thats it any ques e-mai lm e at skaterpim9@aol.com that should be close to 100% correct peace 
Comments