Blink 182 - First Date Chords & Tabs

 

First Date Chords & Tabs

Blink 182 Chords & Tabs

Version: 12 Type: Tab 0 ratings
1 star 2 stars 3 stars 4 stars 5 stars
comments

First Date Tab

   
Intro
e--0----------------------------------
B---11111111-31111111-311111111-31110-
G-------------------------------------
D-------------------------------------x2
A-------------------------------------
E-------------------------------------

e-------------------------------------
B-------------------------------------
G---------------5---------------------
D---------------5----Let Ring---------
A---------------3---------------------
E-------------------------------------

Chorus
e-------------------------------------
B-------------------------------------
G--555--------------------------------
D--555--555--7777--33--55-------------x2
A--333--555--7777--33--55-------------
E-------333--5555--11--33-------------
[ Tab from: http://www.guitartabs.cc/tabs/b/blink_182/first_date_tab_ver_12.html ]
e-------------------------------------
B-------------------------------------
G--5555-------------------------------
D--5555--5555--7777--33--55-----------x3
A--3333--5555--7777--33--33-----------
E--------3333--5555--11--33-----------

Intro

Interlude
e-----------------------------------------
B-----------------------------------------
G-----------------------------------------x2
D--55555555--999999--101010101010--777777-
A--33333333--777777---8-8-8-8-8-8--555555-
E-----------------------------------------
pm........................................

e----------------------------------------
B----------------------------------------
G----------------------------------------
D--55555555-9999-55-10101010-55-77777777-x4
A--33333333-7777-33--8-8-8-8-33-55555555-
E----------------------------------------

Chorus

e----------------------
B----------------------
G-5555-----------------
D-5555-5555-7777-33-55-x4
A-3333-5555-7777-33-55-
E------3333-5555-11-33-

e----------------------
B----------------------
G-----5----------------
D-----5----------------
A-----3----------------
E----------------------
Comments