Blink 182 - First Date Chords & Tabs

 

First Date Chords & Tabs

Blink 182 Chords & Tabs

Version: 11 Type: Tab 0 ratings
1 star 2 stars 3 stars 4 stars 5 stars
comments

First Date Tab

Author/Artist: Blink 182 
Title: First Date 
Album: Take Off Your Pants And Jacket 
Transcribed by: Walt Calis 
Email: megawalt3000@hotmail.com 

standard tuning 
[ Tab from: http://www.guitartabs.cc/tabs/b/blink_182/first_date_tab_ver_11.html ]
intro riff 
-0-----------------------------------|------------------------------------------ 
---1--1---3-1--1--3-1--1--3-1--0-0-x2|-1---------------------------------------- 
-------------------------------------|------------------------------------------ 
-------------------------------------|------------------------------------------ 
-------------------------------------|------------------------------------------ 
-------------------------------------|------------------------------------------ 
                                                                               
guitar verse 
pm. . . . . . . . . . . . . . . . . . . . . . . . . . . .  
------------------------------------------------------------------------------ 
------------------------------------------------------------------------------ 
--55-555-55-555-55-555-55-555-55-555-55-555-55-555-55-555--------------------- 
------------------------------------------------------------------------------ 
------------------------------------------------------------------------------ 
------------------------------------------------------------------------------ 
                                                                               
pre-chorus x2             Chorus x2 
-------------------------|---------------------------------------------------- 
-------------------------|---------------------------------------------------- 
-555-444-2-2-2-2---------|-555555554444444422222222----------------------------- 
-555-444-2-2-2-2-3-3-5-5-|-555555554444444422222222-3-3-5-5--------------------- 
-333-222-0-0-0-0-3-3-5-5-|-333333332222222200000000-3-3-5-5--------------------- 
-----------------1-1-3-3-|--------------------------1-1-3-3---------------------- 

                                                                               
Bridge x2 
----------------------------------------|------------------------------------- 
----------------------------------------|------------------------------------- 
-55555555-------------------------------|------------------------------------- 
-55555555--22222222--33333333--55555555-|------------------------------------- 
-33333333--22222222--33333333--55555555-|------------------------------------- 
-----------00000000--11111111--33333333-|------------------------------------- 
                                                                               
x4 
--------------------------------------------------|--------------------------- 
--------------------------------------------------|--------------------------- 
--555555--9999\55--10101010\55--7777777-7\--------|--------------------------- 
--------------------------------------------------|--------------------------- 
--333333--7777\33--8-8-8-8-\55--5555555-5\--------|--------------------------- 
--------------------------------------------------|--------------------------- 
                                                                               
Intro riff 
Bass verse 
Guitar verse 
Pre-chorus 
Chorus 
Intro riff 
Bass verse  
Guitar verse 
Pre-chorus 
Chorus 
Bridge 
Solo 
Pre-chorus 
Chorus 
Intro Riff 
End on C5 
                                                                               
Comments