Blink 182 - First Date Live Chords & Tabs

 

First Date Live Chords & Tabs

Blink 182 Chords & Tabs

Version: 1 Type: Tab 0 ratings
1 star 2 stars 3 stars 4 stars 5 stars
comments

First Date Live Tab

   
intro
e-----------------------------------------------------------
B--5-1--1--3-1-1--3-1-1--3-1-1-0-------------repeat---------
G-----0--0----0-0----0-0----0-0--------------twice----------
D-----------------------------------------------------------
A-----------------------------------------------------------
E-----------------------------------------------------------

END INTRO on
G--5
D--5
A--3

verse(palm muted)
e-----------------------------------------------------------
B-----------------------------------------------------------
G-5-5-5-5-5-5-5-5-5-5-5-5-5-5-5-5-5-5-5-5-5-5-5-5-5-5-5-5-5-
D-----------------------------------------------------------
A-----------------------------------------------------------
E-----------------------------------------------------------

pre-chorus
e-----------------------------------------------------------
B-----------------------------------------------------------
G------------2222-------------------------------------------
D--333--444--2222--3-5----------------------repeat----------
A--555--222--0000--1-3----------------------twice-----------
E-----------------------------------------------------------
[ Tab from: http://www.guitartabs.cc/tabs/b/blink_182/first_date_live_tab.html ]
chorus
e-----------------------------------------------------------
B--------3333-----------------------------------------------
G--5555--0000--1111-----------------------------------------
D--5555--0000--2222--3-5-------------------repeat-----------
A--3333--2222--2222--3-5-------------------two--------------
E--------------------1-3-------------------times------------

intro 2x
end intro
verse
pre-chorus 2x
chorus 2x

solo(palm muted)
e-----------------------------------------------------------
B-----------------------------------------------------------
G-----------------------------------------------------------
D--55555----------------------------------------repeat------
A--33333----------------------------------------two---------
E---------00000--11111--33333-------------------times-------

solo - part two(*- is a 10)
e-----------------------------------------------------------
B-----------------------------------------------------------
G-55555/999/55/***/55/77777---------repeat-two-times--------
D-xxxxx/xxx/xx/xxx/xx/xxxxx---------------------------------
A-33333/777/33/888/33/55555---------------------------------
E-----------------------------------------------------------

solo - part 3
e-----------------------------------------------------------
B-----------------------------------------------------------
G--55555/444/55/444/77777-----------------------------------
D--xxxxx/xxx/xx/xxx/xxxxx-----------------------------------
A--33333/222/33/222/55555-----------------------------------
E-----------------------------------------------------------

solo part two 1 more time
pre-chorus 2x
chorus 2x
intro 2x

end on(let ring)
G-5--*
D-5--*
A-3--*
Comments