Blink 182 - First Date Chords & Tabs

 

First Date Chords & Tabs

Blink 182 Chords & Tabs

Version: 7 Type: Bass Tab 0 ratings
1 star 2 stars 3 stars 4 stars 5 stars
comments

First Date Bass Tab

-=-=-=-=-=-=-=-=-=-=-=-=-=-=-=-=-=-=-=
Blink 182
First Date
Take Off Your Pants And Jacket
Bass Tab
Tabbed By Leandro Koren
leandro_koren@yahoo.com.ar
-=-=-=-=-=-=-=-=-=-=-=-=-=-=-=-=-=-=-=
Intro & Verse:

G||-------------------------------------||
A||-------------------------------------||
D||--333333333333333--------------------||
E||------------------11111111-33333333--||

Pre - Chorus:

let's go...

G||-------------------------------||
D||-------------------------------||
A||--33---------------------------||
E||-------33----55555555---11-33--||

G||-------------------------------||
D||-------------------------------||
A||--33---------------------------||
E||-------33----55555555---11-33--||

Chorus:

Forever and ever... 

G||--------------------------------------||
D||--------------------------------------||
A||--33333333----------------------------||
e||-----------33333333--55555555--11-33--||

G||--------------------------------------||
D||--------------------------------------||
A||--33333333----------------------------||
e||-----------33333333--55555555--11-33--||

Ending Chorus:

G||-----------------------------------------||
D||-----------------------------------------||
A||--33333333----------------------------3--||
e||-----------33333333--55555555--11-33-----||

Intro X 1.
Verse X 4.
Pre-Chorus X 2.
Chorus X 2.
Guitar Interlude: No Bass
Pre-Chorus X 2.
Chorus X 4.

Lyrics:
[ Tab from: http://www.guitartabs.cc/tabs/b/blink_182/first_date_btab_ver_7.html ]
In the car I just can't wait
To pick you up on our very first date
Is it cool if I hold your hand?
Is it wrong if I think it's lame to dance?

Do you like my stupid hair?
Would you guess that I didn't know what to wear?
I'm just scared of what you think
You make me nervous so I really can't eat.

Let's go 
Don't wait
This nights almost over
Honest, let's make this night last forever.
Forever and ever
Let's make this last forever
Forever and ever. Let's make this last forever.

When you smile, I melt inside
I'm not worthy for a minute of your time
I really wish it was only me and you.
I'm jealous of everybody in the room.

Please don't look at me with those eyes
Please don't hint that you're capable of lies
I dread the though of our very first kiss
A target that I'm probably gonna miss

Let's go 
Don't wait
This nights almost over
Honest, let's make this night last forever.
Forever and ever
Let's make this last forever
Forever and ever. Let's make this last forever.
Let's go 
Don't wait
This nights almost over
Honest, let's make this night last forever.
Forever and ever
Let's make this last forever
Forever and ever. Let's make this last forever.
Forever and ever. Let's make this last forever.
Forever and ever. Let's make this last forever.
-=-=-=-=-=-=-=-=-=-=-=-=-=-=-=-=-=-=-=-=-=-=-=-=-=-=-=-=-=-=-=-=-=-=-=-=-=-=
-=-=-=-=-=-=-=-=-=-=-=-=-=-=-=-=-=-=-=-=-=-=-=-=-=-=-=-=-=-=-=-=-=-=-=-=-=-=
Any question mail me:
leandro_koren@yahoo.com.ar
-=-=-=-=-=-=-=-=-=-=-=-=-=-=-=-=-=-=-=-=-=-=-=-=-=-=-=-=-=-=-=-=-=-=-=-=-=-=
-=-=-=-=-=-=-=-=-=-=-=-=-=-=-=-=-=-=-=-=-=-=-=-=-=-=-=-=-=-=-=-=-=-=-=-=-=-=
Comments