Blink 182 - First Date Chords & Tabs

 

First Date Chords & Tabs

Blink 182 Chords & Tabs

Version: 6 Type: Bass Tab 0 ratings
1 star 2 stars 3 stars 4 stars 5 stars
comments

First Date Bass Tab

i know this is 100%

normal tuning

Intro (x2)
e---------------------------------------
a-3-3-3-3-------------------------------
d-----------0-0-0-0-3-3-3-3-------------
g-------------------------------0-0-0-0-


Verse (x4)
e---------------------------------------
a-3-3-3-3-3-3-3-3-----------------------
d--------------------3-3-3-3-1-1-1-1----
g---------------------------------------

[ Tab from: http://www.guitartabs.cc/tabs/b/blink_182/first_date_btab_ver_6.html ]
chorus part 1 (x2)
e-------------------------1-1-1-1-3-3-3-3-----
a-3-3-----2-2-----0-0-0-0---------------------
d---------------------------------------------
g---------------------------------------------


chorus part 2 (x2)
e-------------------------1-1-1-1-3-3-3-3-----
a-3-3-3-3-2-2-2-2-0-0-0-0---------------------
d---------------------------------------------
g---------------------------------------------


Variation (4x)
e---------------------------------------------
a-3-3-3-3-3-3---------------------------------
d-------------2-2-2-2-2-2-3-3-3-3-------------
g---------------------------------0-0-0-0-0-0-

there you have it :)   the bass master does it again..
its soo easy
so rock on
Comments