Blink 182 - Fentoozler Chords & Tabs

 

Fentoozler Chords & Tabs

Blink 182 Chords & Tabs

Version: 2 Type: Tab 0 ratings
1 star 2 stars 3 stars 4 stars 5 stars
comments

Fentoozler Tab

Author/Artist: blink 182 
Title: fentoozler 
Album: buddha 
Transcribed by: burnard w 
Email: yomama71086@aol.com 

im pretty sure this is right 

------------------------------------------------------------------------------ 
------------------------------------------------------------------------------ 
------11111111------9999------6666-9999-88-6---------------------------------- 
-9999-11111111-9999-9999-9999-6666-9999-88-6---------------------------------- 
-9999-9-9-9-9--9999-7777-9999-4444-7777-66-4---------------------------------- 
-7777----------7777------7777------------------------------------------------- 
          intro                                                                

------------------------------------------------------------------------------ 
------------------------------------------------------------------------------ 
-------11xxxx--------9xxxxx------6666-88-6------------------------------------ 
-9xxxx-11xxxx-9xxxxx-9xxxxx-9999-6666-88-6------------------------------------ 
-9xxxx--9xxxx-9xxxxx-7xxxxx-9999-4444-66-4------------------------------------ 
-7xxxx--------7xxxxx--------7777---------------------------------------------- 
            verses                                                             
[ Tab from: http://www.guitartabs.cc/tabs/b/blink_182/fentoozler_tab_ver_2.html ]
------------------------------------------------------------------------------ 
------------------------------------------------------------------------------ 
-6666-9999------11111111-6666-9999-------------------------------------------- 
-6666-9999-9999--9-9-9-9-6666-9999-------------------------------------------- 
-4444-7777-9999--9-9-9-9-4444-7777-------------------------------------------- 
-----------7777--------------------------------------------------------------- 
   chours                                                                      

------------------------------------------------------------------------------ 
------------------------------------------------------------------------------ 
------------------------------------------------------------------------------ 
------------------------------------------------------------------------------ 
-3-3-3-3-2-3-5-7-8-8-7-5-3-3-2-3-5--7-3-8-7-3-3-3-2-3-10-10-8-7-8-7-5--------- 
------------------------------------------------------------------------------ 
 solo                                                                          

------------------------------------------------------------------------------ 
------------------------------------------------------------------------------ 
------------------------------------------------------------------------------ 
------------------------------------------------------------------------------ 
-3-3-5-5-7--2-2-3-3-5--5-5-7-7-8---------------------------------------------- 
---------------------------------3-5-8-7--8-8-8-8-7-8-10-10-10-10-12-15------- 
                                                                               

------------------------------------------------------------------------------ 
------------------------------------------------------------------------------ 
------------------------------------------------------------------------------ 
------------------------------------------------------------------------------ 
------------------------------------------------------------------------------ 
-15-13-12-13-12-10------------------------------------------------------------ 
                                                                               


Comments