Blink 182 - Feeling This Chords & Tabs

 

Feeling This Chords & Tabs

Blink 182 Chords & Tabs

Version: 8 Type: Tab 0 ratings
1 star 2 stars 3 stars 4 stars 5 stars
comments

Feeling This Tab

   
Ok Blink is awesome not extremely difficult to play...heres the tab
X = mute with finger ( there are octave chords )
/= slide
pm... = palm mute
Tuning normal ( E-a-d-g-b-E )
Intro ( Drums have sweet effect on them )

e----------------------------------------------
b----------------------------------------------
g-9-9-9-9-9-9-9/7-9/13/9-----------------------        
d-x-x-x-x-x-x-x/x/x/x/-x-----------------------
a-7-7-7-7-7-7-7/5/7/11/7-----------------------
E----------------------------------------------
(alot of sliding I know)
Verse

e----------------------------------------------
b----------------------------------------------
g-9-9-9-9-9-9-9/7-9/13/9-----------------------         
d-x-x-x-x-x-x-x/x/x/x/-x-----------------------
a-7-7-7-7-7-7-7/5/7/11/7-----------------------
E----------------------------------------------
( more sliding )

Chorus (this isn't played until end)

e------------------------------------------------
b------------------------------------------------
g-9-9-9-9-9-9-9-9-----------------6-6-6-6-6-6-6-6
d-9-9-9-9-9-9-9-9-9-9-9-9-9-9-9-9-6-6-6-6-6-6-6-6
a-7-7-7-7-7-7-7-7-9-9-9-9-9-9-9-9-4-4-4-4-4-4-4-4
E-----------------7-7-7-7-7-7-7-7----------------

e------------------------------------------------
b------------------------------------------------
g------------------------------------------------
d-7-7-7-7-7-7-7-7--------------------------------
a-7-7-7-7-7-7-7-7--------------------------------
E-5-5-5-5-5-5-5-5--------------------------------

Pre Verse
[ Tab from: http://www.guitartabs.cc/tabs/b/blink_182/feeling_this_tab_ver_8.html ]
e-----------------------------------------------------------------
b-----------------------------------------------------------------
g-9-9-9-9-9-9-9-9/11-11-11-11-11-11-11-11-13-13-13-13-13-13-13-13
d-x-x-x-x-x-x-x-x/x--x--x--x--x--x--x--x--x--x--x--x--x--x--x--x--
a-7-7-7-7-7-7-7-7/9--9--9--9--9--9--9--9--11-11-11-11-11-11-11-11-
E-----------------------------------------------------------------

e-----------------------------------------------------------------
b-----------------------------------------------------------------
g-14-14-14-14-14-14-14-14-----------------------------------------
d-x--x--x--x--x--x--x--x------------------------------------------
a-12-12-12-12-12-12-12-12-----------------------------------------
E-----------------------------------------------------------------




Break 

e------------------------------------------------
b------------------------------------------------
g-9-9-9-9-9-9-9-9-----------------6-6-6-6-6-6-6-6
d-9-9-9-9-9-9-9-9-9-9-9-9-9-9-9-9-6-6-6-6-6-6-6-6
a-7-7-7-7-7-7-7-7-9-9-9-9-9-9-9-9-4-4-4-4-4-4-4-4
E-----------------7-7-7-7-7-7-7-7----------------
 pm..............................................
e------------------------------------------------
b------------------------------------------------
g------------------------------------------------
d-7-7-7-7-7-7-7-7--------------------------------
a-7-7-7-7-7-7-7-7--------------------------------
E-5-5-5-5-5-5-5-5--------------------------------
 pm..............

Order

Intro x2
Verse x8
Chorus (no guitar) x1
pre verse x1
intro x2
verse x6
chorus (no guitar) x2
break x2
chorus x8

There it is.......
Blade
Comments