Blink 182 - Feeling This Chords & Tabs

 

Feeling This Chords & Tabs

Blink 182 Chords & Tabs

Version: 7 Type: Tab 0 ratings
1 star 2 stars 3 stars 4 stars 5 stars
comments

Feeling This Tab

   
Intro (Guitar flanger and drums)                         Key: \ = slide down
                                                             pm = palm mute
Intro pt.2/Verse
e|--------------------------------|
B|--------------------------------|
G|-9-9-9-9-9-9-9-9-9-9-9-----13\9-|
D|-x-x-x-x-x-x-x-x-x-x-x-----xx\x-|   x6
A|-7-7-7-7-7-7-7-7-7-7-7-----11\7-|
E|------------------------0-------|
                               
Chorus
e|----------------------|
B|----------------------|
G|----------------------|
D|-2------------2-------|
A|-2------------2-------|
E|-0------------0-------| 
   
Break 
e|--------------------------------------------|
B|--------------------------------------------|
G|-9-9-9-9-9-9-9-9-11-11-11-11-11-11-11-11-11-|
D|-x-x-x-x-x-x-x-x-x-x-x-x-x-x-x-x-x-x-x-x-x--|
A|-7-7-7-7-7-7-7-7-9--9--9--9--9--9--9--9--9--|
E|--------------------------------------------|

e|-------------------------------------------------|
B|-------------------------------------------------|
G|-13-13-13-13-13-13-13-13-14-14-14-14-14-14-14-14-|
D|-x--x--x--x--x--x--x--x--x--x--x--x--x--x--x--x--|
A|-11-11-11-11-11-11-11-11-12-12-12-12-12-12-12-12-| 
E|-------------------------------------------------|
[ Tab from: http://www.guitartabs.cc/tabs/b/blink_182/feeling_this_tab_ver_7.html ]
Verse
e|--------------------------------|
B|--------------------------------|
G|-9-9-9-9-9-9-9-9-9-9-9-----13\9-|
D|-x-x-x-x-x-x-x-x-x-x-x-----xx\x-|   x6
A|-7-7-7-7-7-7-7-7-7-7-7-----11\7-|
E|------------------------0-------|
                               
Chorus
e|----------------------|
B|----------------------|
G|----------------------|
D|-2------------2-------|
A|-2------------2-------|
E|-0------------0-------| 

Bridge (drums)

Bridge pt.2 (bass n drums)

Bridge pt.3
e|-----------------------------------------------------------------|
B|-----------------------------------------------------------------|
G|-9-9-9-9-9-9-9-9-9-9-9-9-9-9-9-9-9-9-9-9-9-9-9-9-9-9-9-9-9-9-9-9-|
D|-9-9-9-9-9-9-9-9-9-9-9-9-9-9-9-9-9-9-9-9-9-9-9-9-9-9-9-9-9-9-9-9-|
A|-7-7-7-7-7-7-7-7-x-x-x-x-x-x-x-x-x-x-x-x-x-x-x-x-0-0-0-0-0-0-0-0-|   x2
E|-----------------7-7-7-7-7-7-7-7-9-9-9-9-9-9-9-9-----------------|
 pm................................................................


Outro
e|-------------------------------------------------------------------------|
B|-------------------------------------------------------------------------|
G|-9-9-9-9-9-9-9-9---------------------------------------------------------|
D|-9-9-9-9-9-9-9-9-9-9-9-9-9-9-9-9-11-11-11-11-11-11-11-11-7-7-7-7-7-7-7-7-|
A|-7-7-7-7-7-7-7-7-9-9-9-9-9-9-9-9-11-11-11-11-11-11-11-11-7-7-7-7-7-7-7-7-| 
E|-----------------7-7-7-7-7-7-7-7-9--9--9--9--9--9--9--9--5-5-5-5-5-5-5-5-|
x8
Comments