Blink 182 - Feeling This Chords & Tabs

 

Feeling This Chords & Tabs

Blink 182 Chords & Tabs

Version: 3 Type: Tab 0 ratings
1 star 2 stars 3 stars 4 stars 5 stars
comments

Feeling This Tab

   
Band   : Blink 182
Song   : Feeling This
Tuning : Normal

tabbed by Peter Tom Takaro ('Nouseforaname' on Jackson & FF postboard)
--------------------------
errors&comments&requests&questions on nouseforaname@freemail.hu

***INTRO/VERSE 1&2***

e---------------------------
B---------------------------
G-11\9\8/9-9---9/13\9-------
D--x\x\x/x-x---x/-x\x-------
A--9\7\6/7-7---7/11\7-------
E-----------0~--------------

***CHORUS 1&2***

Mark's Part
G-----------------------------------------------------------------
D-----------------------------------------------------------------
A-----------------2-2-2-2-2-2-2-2-4-4-4-4-4-4-4-4-----------------
E-0-0-0-0-0-0-0-0---------------------------------5-5-5-5-5-5-5-5-

Tom
e-----------------------------------------------------------------
B-----------------------------------------------------------------
G-----------------------------------------------------------------
D-2---------------------------------------------------------------
A-2-don't let ring------------------------------------------------
E-0---------------------------------------------------------------
[ Tab from: http://www.guitartabs.cc/tabs/b/blink_182/feeling_this_tab_ver_3.html ]
***Bridge***
                                               
e----------------------------------------------------------------
B----------------------------------------------------------------
G-8/9-9-9-9-9-9-9-9/11-11-11-11-11-11-11-11/13-13-13-13-13-13-13-
D-x/x-x-x-x-x-x-x-x/-x--x--x--x--x--x--x--x/-x--x--x--x--x--x--x-
A-6/7-7-7-7-7-7-7-7/-9--9--9--9--9--9--9--9/11-11-11-11-11-11-11-
E----------------------------------------------------------------

e--------------------------
B--------------------------
G-13/14-14-14-14-14-14-14--
D--x/-x--x--x--x--x--x--x--
A-11/12-12-12-12-12-12-12--
E--------------------------

***INTERLUDE***

- palm muted
e---------------------------------
B---------------------------------
G---------------------------------
D-----6---6--------------9-9-9-9--
A-7-7-7-7-7-7-7-7--7-7-7-9-9-9-9--
E-0-0-0-0-0-0-0-0--0-0-0-0-0-0-0--

***Last Chorus***

e------------------------------------------------------------------
B------------------------------------------------------------------
G-9-9-9-9-9-9-9-9--------------------------------------------------
D-9-9-9-9-9-9-9-9-9-9-9-9-9-9-9-91111111111111111-7-7-7-7-7-7-7-7--
A-7-7-7-7-7-7-7-7-9-9-9-9-9-9-9-91111111111111111-7-7-7-7-7-7-7-7--
E-0-0-0-0-0-0-0-0-7-7-7-7-7-7-7-7-9-9-9-9-9-9-9-9-5-5-5-5-5-5-5-5--

end...

keys,

x = muted string
/ = slide up
\ = slide down
~ = let ring

Have fun!
Comments