Blink 182 - Feeling This Chords & Tabs

 

Feeling This Chords & Tabs

Blink 182 Chords & Tabs

Version: 17 Type: Tab 0 ratings
1 star 2 stars 3 stars 4 stars 5 stars
comments

Feeling This Tab

************************
* Artist: BLINK 182    *
* Song: Feeling this   *
* Album: Blink 182     *
* Tabbed by: Jose Cruz *
************************

palm muted = *
slide = /
let ring = ~

Intro
1 --------------------------|
2 --------------------------|
3 --------------------------|
4 --4/2-222-----2/6---------|
5 ---------------------2----|
6 ----------0~~~-------0----|

Verse
1 --------------------------|
2 --------------------------|
3 --------------------------|
4 --4/2-222-----2/6/2-------|
5 --------------------------|
6 ----------0~~~------------|

Chorus Pt1 [Guitar 1]
1 -------|
2 -------|
3 ---4---|
4 ---2---|
5 ---2---|
6 ---0---|

Chorus Pt2 [Guitar 1]
1 -------|
2 -------|
3 -------|
4 ---2---|
5 ---2---|
6 ---0---|

Chorus Pt2 [Guitar 2]
1 -------|
2 -------|
3 ---9---|
4 ---9---|
5 ---7---|
6 -------|
[ Tab from: http://www.guitartabs.cc/tabs/b/blink_182/feeling_this_tab_ver_17.html ]
Interlude 1
1 ---------------------------------------------------------------------|
2 ---------------------------------------------------------------------|
3 -99999999-9/11-1111111111111111-11/13-1313131313-13/14-1414141414----|
4 -xxxxxxxx-xxx---xxxxxxxxxxxxxxx--xxxx-xxxxxxxxxx-x--x--xxxxxxxxxx----|
5 -77777777-7/9---9 9 9 9 9 9 9 9--9/11-1111111111-11/12-1212121212----|
6 ---------------------------------------------------------------------|

Interlude 2 [Guitar 1]
1 --------------------------------------|
2 --------------------------------------|
3 --------------------------------------|
4 ---6-6--------2244---6-6--------2244--|
5 -77-7-7-22-222-----77-7-7-00-000------|
6 --------------------------------------|
   ****** ********** ****** **********

Interlude 2 [Guitar 2]
1 --------------------------------------|
2 --------------------------------------|
3 --------------------------------------|
4 -99999999-44444444-66666666-22222222--|
5 -77777777-22222222-44444444-00000000--|
6 --------------------------------------|
   ******** ******** ******** ********

Final Chorus
1 ------------------------------------------|
2 ------------------------------------------|
3 -9999999-44444444-66666666-22222222-------|
4 -9999999-44444444-66666666-22222222-------|
5 -7777777-22222222-44444444-00000000-------|
6 ------------------------------------------|

SONG STRUCTURE
Intro x2
Verse x8
Chorus Pt1 x1
Chorus Pt2 [Guitar 1] and [Guitar 2] x1 when tom starts singing
Interlude 1 x1
Intro x2
Verse x6
Chorus Pt1 x1
Chorus Pt2 [Guitar 1] and [Guitar 2] x1 when tom starts singing
Interlude 2 [Guitar 1] and [Guitar 2] x2
Final Chorus x2
Final Chorus [Guitar 1] x6 and verse [Guitar 2] x12 then fades
Comments