Blink 182 - Feeling This Chords & Tabs

 

Feeling This Chords & Tabs

Blink 182 Chords & Tabs

Version: 15 Type: Tab 0 ratings
1 star 2 stars 3 stars 4 stars 5 stars
comments

Feeling This Tab

Feeling This
Blink-182
Tabbed by: Ross Evans

*Capo on 2nd fret*

(dont feel like showing the exact strumming...its easy tho)

Intro 

------------------------------------------------------
------------------------------------------------------
-13/9999---9/13---------------------------------------  2x
-0-/0000---0/0----------------------------------------
-11/7777---7/11---------------------------------------
---------0--------------------------------------------

Verse

------------------------------------------------------
------------------------------------------------------
-13/9999---9/13---------------------------------------  8x
-0-/0000---0/0----------------------------------------
-11/7777---7/11---------------------------------------
---------0--------------------------------------------

Chorus

------------------------------------------------------
------------------------------------------------------
------------------------------------------------------  1x
--2-------2-------------------------------------------
--2-------2-------------------------------------------
--0-------0-------------------------------------------


Verse Buildup

------------------------------------------------------
------------------------------------------------------
---999999-/-11/-13/-14--------------------------------  1x
---000000-/-0-/-0-/-0---------------------------------
---777777-/-9-/-11/-12--------------------------------
------------------------------------------------------

Verse
[ Tab from: http://www.guitartabs.cc/tabs/b/blink_182/feeling_this_tab_ver_15.html ]
------------------------------------------------------
------------------------------------------------------
-13/9999---9/13---------------------------------------  8x
-0-/0000---0/0----------------------------------------
-11/7777---7/11---------------------------------------
---------0--------------------------------------------

Chorus

------------------------------------------------------
------------------------------------------------------
------------------------------------------------------  1x
--2-------2-------------------------------------------
--2-------2-------------------------------------------
--0-------0-------------------------------------------

Bridge

-----------------------------------------------------------------
-----------------------------------------------------------------
-9-9-9-9-9-9-9-9-9-9-9-9-9-9-9-9-9-9-9-9-9-9-9-9-9-9-9-9-9-9-9-9-  
-9-9-9-9-9-9-9-9-9-9-9-9-9-9-9-9-9-9-9-9-9-9-9-9-9-9-9-9-9-9-9-9-
-7-7-7-7-7-7-7-7-0-0-0-0-0-0-0-0-0-0-0-0-0-0-0-0-0-0-0-0-0-0-0-0-   
-----------------7-7-7-7-7-7-7-7-9-9-9-9-9-9-9-9-----------------
Palm mute........................................................

Final Chorus

-----------------------------------------------------------------
-----------------------------------------------------------------
--9--------------------------------------------------------------  8x
--9--9--11--7----------------------------------------------------
--7--9--11--7----------------------------------------------------
-----7--9---5----------------------------------------------------
Comments