Blink 182 - Feeling This Chords & Tabs

 

Feeling This Chords & Tabs

Blink 182 Chords & Tabs

Version: 12 Type: Tab 0 ratings
1 star 2 stars 3 stars 4 stars 5 stars
comments

Feeling This Tab

   
Blink 182-Feelin This
Tabbed by:GergleRock86
Email:looney2006@hotmail, yahoo, or lycos
Tuning:Standard
Intro/Verse
e|--------------------| Repeat as needed
B|--------------------|
G|--------------------|
D|2-2-2-2-2-2-2-2-2/6-|
A|--------------------|
E|--------------------|

Chorus (mainly bass)
e|-------------|
B|-------------|
G|-------------|
D|2----------2-|
A|2----------2-|
E|0----------0-|

Post Chorus (only for the first)
e|-------------------------------------------------------------------|
B|-------------------------------------------------------------------|
G|-------------------------------------------------------------------|
D|2-2-2-2-2-2-2-2-4-4-4-4-4-4-4-4-6-6-6-6-6-6-6-6-7-7-7-7-7-7-7-7-7--|
A|-------------------------------------------------------------------|
E|-------------------------------------------------------------------|
[ Tab from: http://www.guitartabs.cc/tabs/b/blink_182/feeling_this_tab_ver_12.html ]
Bridge (all palm muted)
e|-------------------------------------------------------------------|
B|-------------------------------------------------------------------|
G|-------------------------------------------------------------------|
D|2-2-2-2-2-2-2-2--4-4-4-4-4-4-4-4--4-4-4-4-4-4-4-4-0-0-0-0-0-0-0-0--|
A|2-2-2-2-2-2-2-2--4-4-4-4-4-4-4-4--4-4-4-4-4-4-4-4-0-0-0-0-0-0-0-0--|
E|0-0-0-0-0-0-0-0--2-2-2-2-2-2-2-2--0-0-0-0-0-0-0-0------------------|

e|------------------------------------------------------------|
B|------------------------------------------------------------|
G|------------------------------------------------------------|
D|2-2-2-2-2-2-2-2--4-4-4-4-4-4-4-4--4-4-4-4-4-4-4-4-----------|
A|2-2-2-2-2-2-2-2--4-4-4-4-4-4-4-4--4-4-4-4-4-4-4-4-----------|
E|0-0-0-0-0-0-0-0--2-2-2-2-2-2-2-2--0-0-0-0-0-0-0-0-----------|

Final Chorus (2nd time play the intro/verse riff)
E|------------------------------------------------------------------|
B|------------------------------------------------------------------|
G|2-2-2-2-2-2-2-2--4-4-4-4-4-4-4-4--4-4-4-4-4-4-4-4-0-0-0-0-0-0-0-0-|
D|2-2-2-2-2-2-2-2--4-4-4-4-4-4-4-4--4-4-4-4-4-4-4-4-0-0-0-0-0-0-0-0-|
A|0-0-0-0-0-0-0-0--2-2-2-2-2-2-2-2--x-x-x-x-x-x-x-x-----------------|
E|----------------------------------2-2-2-2-2-2-2-2-----------------|
Comments