Blink 182 - Feeling This Chords & Tabs

 

Feeling This Chords & Tabs

Blink 182 Chords & Tabs

Version: 10 Type: Tab 0 ratings
1 star 2 stars 3 stars 4 stars 5 stars
comments

Feeling This Tab

BLINK-182 FEELING THIS
ALBUM-BLINK-182 (2003)
STANDARD TUNING
Mark Hoppus-VOCAL/BASS
Tom Delonge-VOCAL/GUITAR
Scott Raynor-DRUMS

INTRO:
E--------------------- 8X LISTEN TO THE RYTHEM FOR INTRO
B---------------------
G---------------------
D---------------------
A---7777777-11--------
E---------------------


1ST CHORUS
E---------------------
B---------------------
G-9-------------------
D-9-------------------
A-7-------------------
E---------------------

VERSE:
E-------------------- 8X
B--------------------
G--------------------
D--------------------
A---7777777-11-------
E--------------------

2ED CHORUS:
E---------------------
B---------------------
G-9-------------------
D-9-------------------
A-7-------------------
E---------------------

DRUM SOLO

INTERLUDE:
BLINK-182 FEELING THIS
ALBUM-BLINK-182 (2003)
STANDARD TUNING

INTRO:
E--------------------- 8X LISTEN TO THE RYTHEM FOR INTRO
B---------------------
G---------------------
D---------------------
A---7777777-11--------
E---------------------


1ST CHORUS
E---------------------
B---------------------
G-9-------------------
D-9-------------------
A-7-------------------
E---------------------

VERSE:
E-------------------- 8X
B--------------------
G--------------------
D--------------------
A---7777777-11-------
E--------------------

2ED CHORUS:
E---------------------
B---------------------
G-9-------------------
D-9-------------------
A-7-------------------
E---------------------

DRUM SOLO

INTERLUDE:
E------------------------------- 2x -PALM MUTED
B-------------------------------
G-9-8x--------------------------
D-9----9-8x--11-8x--7-8x--------
A-7----9-----11-----7-----------
E------7-----9------5-----------
[ Tab from: http://www.guitartabs.cc/tabs/b/blink_182/feeling_this_tab_ver_10.html ]
3RD CHORUS:
E------------------------------- 
B-------------------------------
G-9-8x--------------------------
D-9----9-8x--11-8x--7-8x--------
A-7----9-----11-----7-----------
E------7-----9------5-----------


LYRICS-
Feeling This

INTRO

Get ready for action
I got to regret right now (I知 feeling this)
The air is so cold and null (I知 feeling this)
Let me go in her room (I知 feeling this)
I wanna take off her clothes} (I知 feeling this)
Show me the way to bed (I知 feeling this)
Show me the way you move (I知 feeling this)
****ing is such a blur (I知 feeling this)
I love all the things you do (I知 feeling this)

CHOURS

Fate fell short this time
Your smile fades in the summer
Place your hand in mine
I値l leave when I wanna

VERSE
 
Where do we go from here
Turn all the lights down now
Smiling from ear to ear (I知 feeling this)
Our breathing has got too loud (I知 feeling this)
Show me the bedroom floor (I知 feeling this)
Show me the bathroom mirror (I知 feeling this)
We池e taking this way too slow (I知 feeling this)
Take me away from here (I知 feeling this)

CHORUS -DRUM SOLO

INTURLUDE

This place was never the same again
After you came and went
How can you say you meant anything different
To anyone standing alone 
On the street with a cigarette
On the first night we met

Look to the past
And remember her smile
And maybe tonight
I can breathe for awhile
I'm not in the seat
I think I'm fallin' asleep
But then all that it means is 
I'll always be dreaming of you

CHORUS 
During Last Choruses In The Background
I'll be alone if you're feeling
So lost and disillusioned

LOOK IM SURE THIS IS IT, I LOVE THIS SONG, IT TOOK ABOUT 10 MINS TO FIGURE OUT,
WAY TOO EASY FOR SUCH A SIMPLE SONG, WELL THEY SAY, LESS=MORE.  N E WAYS
QUESTIONS CORRECTIONS, E-MAIL ME @ HARDROCKN@JUNO.COM

BLINK ROCKS!!!
Comments