Blink 182 - Feeling This Live Chords & Tabs

 

Feeling This Live Chords & Tabs

Blink 182 Chords & Tabs

Version: 1 Type: Tab 0 ratings
1 star 2 stars 3 stars 4 stars 5 stars
comments

Feeling This Live Tab

Band:Blink 182
Song:Feeling This(Live)
Album:self Tittled

I got this tab from the show they played at MTV
so dicided to make a tab of this song
couse the rest of them dont sound as good,also this
tab is about 95% good, so here it is.

PM:Palm Mute
~:ring

Intro(Strum)

E|-----------------------------|
B|-----------------------------|
G|-0-9-7-7-7-7-7-7-7-7-7-7--11-|
D|-0-x-x-x-x-x-x-x-x-x-x-x--x--| (play once)
A|-0-7-5-5-5-5-5-5-5-5-5-5--9--|
E|-0---------------------------|

 Intro 2
E|-------------------------------|
B|-------------------------------|
G|-0-9-0-7-7-7-7-7-7-7-7-7-7--11-|
D|-0-x-0-x-x-x-x-x-x-x-x-x-x--x--| X1
A|-0-7-0-5-5-5-5-5-5-5-5-5-5--9--|
E|-0-----------------------------|

Verse
E|-------------------------------|
B|-------------------------------|
G|-0-9-0-7-7-7-7-7-7-7-7-7-7--11-|
D|-0-x-0-x-x-x-x-x-x-x-x-x-x--x--| X8
A|-0-7-0-5-5-5-5-5-5-5-5-5-5--9--|
E|-0-----------------------------|

Chorus(Do No let it ring)
E|---------------------------------|
B|---------------------------------|
G|---------------------------------|
D|-7-------------7-----------------|
A|-7-------------7-----------------|
E|-0-------------0-----------------|
 Fate..........Raise

[ Tab from: http://www.guitartabs.cc/tabs/b/blink_182/feeling_this_live_tab.html ]
E|------------------------------------------------------|
B|------------------------------------------------------|
G|7-7-7-7-7-7--9-9-9-9-9-9-9--11-11-11-11--13-13-13-13--|
D|-x-x-x-x-x--x-x-x-x-x-x-x--x-x-x-x-x-x--x-x-x-x-x-x---|
A|5-5-5-5-5-5--7-7-7-7-7-7-7--9-9-9-9-9-9--11-11-11-11--|
E|------------------------------------------------------|

Verse X8

Chorus X1

Bridge(Look to the Pastpart)
E|------------------------------------------------------------|
B|------------------------------------------------------------|
G|-9-9-9-9-9-9-9----------------------------------------------|
D|-9-9-9-9-9-9-9-9-9-9-9-9-9-9--11-11-11-11-11-7-7-7-7-7-7-7--|
A|-7-7-7-7-7-7-7-9-9-9-9-9-9-9--11-11-11-11-11-7-7-7-7-7-7-7--| X2
E|---------------7-7-7-7-7-7-7--9-9-9-9-9-9-9--5-5-5-5-5-5-5--|
Pm..........................................................


Chorus
E|------------------------------------------------------------|
B|------------------------------------------------------------|
G|-9-9-9-9-9-9-9----------------------------------------------|
D|-9-9-9-9-9-9-9-9-9-9-9-9-9-9--11-11-11-11-11-7-7-7-7-7-7-7--| X8
A|-7-7-7-7-7-7-7-9-9-9-9-9-9-9--11-11-11-11-11-7-7-7-7-7-7-7--|
E|---------------7-7-7-7-7-7-7--9-9-9-9-9-9-9--5-5-5-5-5-5-5--|

End(let it ring)
E|----
B|----
G|-9~-
D|-9~-
A|-7~-
E|----

Thats It.Enjoy.
Questions or if you want blink182 tabs E mail me at
www.AtticBlink18@aol.com
Comments