Blink 182 - Feeling This Chords & Tabs

 

Feeling This Chords & Tabs

Blink 182 Chords & Tabs

Version: 6 Type: Bass Tab 0 ratings
1 star 2 stars 3 stars 4 stars 5 stars
comments

Feeling This Bass Tab

Blink 182 - Feeling This
By Mark Hoppus & Tom Delonge
Transcribed by los3rkid (pokie_pan@hotmail.com)

Verse [00:11] - 4 times:
G|-------------------------------------------------------
D|-----9---9--------4---4-------6---6----4------2--------
A|-777---7---7--222---2---2-444---4---22---2-00---0------
E|-------------------------------------------------------

Chorus [00:33] - 2 times:
G|-------------------------------------------------------
D|-------------------------------------------------------
A|----------22222222-44444444-00000000-------------------
E|-00000000----------------------------------------------


Verse [00:55] - 4 times:
G|-------------------------------------------------------
D|-----9---9--------4---4-------6---6----4------2--------
A|-777---7---7--222---2---2-444---4---22---2-00---0------
E|-------------------------------------------------------
[ Tab from: http://www.guitartabs.cc/tabs/b/blink_182/feeling_this_btab_ver_6.html ]
Chorus [01:12] - 2 times:
G|-------------------------------------------------------
D|-------------------------------------------------------
A|----------22222222-44444444-00000000-------------------
E|-00000000----------------------------------------------

Interlude [01:34] - 1 time:
G|-------
D|-------
A|------- (Note: Hit very lightly)
E|---12~-

Pre-Chorus [01:45] - 1 time:
G|-------------------------------------------------------
D|-------------------------------------------------------
A|-77777777-22222222-44444444-00000000-------------------
E|-------------------------------------------------------

G|-------------------------------------------------------
D|-------------------------------------------------------
A|-77777777-22222222-44444444-0--------------------------
E|-------------------------------------------------------

Chorus [01:56] - 9 times:
G|-------------------------------------------------------
D|-------------------------------------------------------
A|----------22222222-44444444-00000000------------------- (fade out on the 9th time)
E|-00000000----------------------------------------------
Comments