Blink 182 - Feeling This Chords & Tabs

 

Feeling This Chords & Tabs

Blink 182 Chords & Tabs

Version: 3 Type: Bass Tab 0 ratings
1 star 2 stars 3 stars 4 stars 5 stars
comments

Feeling This Bass Tab

Artist: Blink 182
Song: Feeling This - Correction
Album: Blink 182
Tabbed by Danny182 dan_rocks_uk@hotmail.com 

Sorry previous chorus tab was wrong.

Verse:
--------------------------------------
--------------------------------------
--------------------------------------
-0-0-0-0-0-0-0--0--4-4-4-------------- x?
or...
--------------------------------------
--------------------------------------
-7-7-7-7-7-7-7--7--11-11-11-----------
--------------------------------------
Chorus:
-----------------------------------------------------------------
-----------------------------------------------------------------
-7-7-7-7-7-7-7-7-2-2-2-2-2-2-2-4-4-4-4-4-4-4---------------------
---------------------------------------------5-5-5-5-5-5-5-5----- x2
[ Tab from: http://www.guitartabs.cc/tabs/b/blink_182/feeling_this_btab_ver_3.html ]
Street with a cig...bit..first time just let E ring
---------------------------------------
---------------------------------------
-7~------------------------------------
-----7~---9~---5~----------------------

Outro: 2 versions here, i can't quite tell which is right maybe mix 'n' match
------------------------------------------------------------------
-----9----9-------------------------------------------------------
-7-7--7-7-------9-----9-7-----11-----11------7-----7--------------
------------7-7---7-7-----9-9----9-9-----5-5---5-5----------------

or...
------------------------------------------------
------------------------------------------------
-7-7-7-7-7-7------------------------------------
-------------7-7-7-7-7-7-9-9-9-9-9-9-5-5-5-5-5-5
Comments