Blink 182 - Feeling This Chords & Tabs

 

Feeling This Chords & Tabs

Blink 182 Chords & Tabs

Version: 1 Type: Bass Tab 2 ratings
1 star 2 stars 3 stars 4 stars 5 stars
comments

Feeling This Bass Tab

Feeling This
blink 182 - 1

Here's the base part. It's official and easy to play once you get the hang of it.

s = slide

Verses:
g|----4-----4---4-|----------------|----------------|--------2-2-2---|
d|2-2---2-2---2---|----4---2---1---|----6-----6---6-|----4---x-x-x---|
a|----------------|2-2---2---2---2-|4-4---4-4---4---|2-2---2-2-2-2-2-|
e|----------------|----------------|----------------|----------------|


Chorus:
Part One:
g|----------------|----------------|----------------|----------------|
d|----------------|----------------|----------------|----------------|
a|----------------|2-2-2-2-2-2-2-2-|4-4-4-4-4-4-4-4-|0-0-0-0-0-0-0-0-|
e|0-0-0-0-0-0-0-0-|----------------|----------------|----------------|

g|----------------|----------------|----------------|----------------|
d|----------------|----------------|----------------|----------------|
a|----------------|2-2-2-2-2-2-2-2-|4-4-4-4-4-4-4-4-|0-0-0-0-0-0-0-0-|
e|0-0-0-0-0-0-0-0-|----------------|----------------|----------------|

Part Two:
g|----------------|----------------|----------------|----------------|
d|9-9-9-9-9-9-9-s-|4-4-4-4-4-4-4-4-|6-6-6-6-6-6-6-0-|2-2-2-2-2-2-2-2-|
a|7-7-7-7-7-7-7-s-|2-2-2-2-2-2-2-2-|4-4-4-4-4-4-4---|0-0-0-0-0-0-0-0-|
e|----------------|----------------|----------------|----------------|
[ Tab from: http://www.guitartabs.cc/tabs/b/blink_182/feeling_this_btab.html ]
g|----------------|----------------|----------------|------------------------|
d|9-9-9-9-9-9-9-s-|4-4-4-4-4-4-4-4-|6-6-6-6-6-6-6-s-|14-14-14-14-14-14-14-14-|
a|7-7-7-7-7-7-7-s-|2-2-2-2-2-2-2-2-|4-4-4-4-4-4-4-s-|12-12-12-12-12-12-12-12-|
e|----------------|----------------|----------------|------------------------|

Play them together!


Bridge Part One:
g|----------------|
d|----------------|
a|7-----hold------|
e|----------------|


Bridge Part Two:
g|----------------|----------------|----------------|----------------|
d|2-2-2-2-2-2-2-2-|----------------|----------------|----------------|
a|----------------|2-2-2-2-2-2-2-2-|4-4-4-4-4-4-4-4-|0-0-0-0-0-0-0-0-|
e|----------------|----------------|----------------|----------------|

g|----------------|----------------|--------1-----|.---------------|
d|2-2-2-2-2-2-2-2-|----------------|----------4-2-|----------------|
a|----------------|2-2-2-2-2-2-2-2-|4-4-4-4-------|0---------------|
e|----------------|----------------|-------triplet|----------------|

Outro:
g|----4-------4---|----------------|----------------|----------------|
d|2-2---2-2-2---2-|----4---2---1---|----6-----6-----|----------------|
a|----------------|2-2---2---2---2-|4-4---4-4---4-2-|0-0-0-0-0-0-0-0-|
e|----------------|----------------|----------------|----------------|



Order of Song:

Pause... =2 parts=
Verse x4
Chorus

Pause... =3 parts=
Verse x3
Chorus

Breakdown...
Bridge Part One =2 parts=
Bridge Part Two

Outro x10 (fade out 9th time)

Comments