Blink 182 - Family Reunion Chords & Tabs

 

Family Reunion Chords & Tabs

Blink 182 Chords & Tabs

Version: 7 Type: Tab 0 ratings
1 star 2 stars 3 stars 4 stars 5 stars
comments

Family Reunion Tab

   
Blink 182 - Family Reunion
Tabbed by:  Greg wiseman (gdw6813@yahoo.com)

Standard Tuning (EADGBe)

 ~ = Let Ring
 * = Play open
PM = Palm mute


e |------|
B |------|
G |------|
D |-777~-|
A |-777~-|
E |-555~-|

"Shit piss fuck cunt cocksucker motherfucker tits fart turd 'n twat..."


    PM
e |---------------------------------------------------------------------|
B |---------------------------------------------------------------------|
G |---------------------------------------------------------------------|
D |-77777777-99999999--11-11-11-11-11-11-11-11--12-12-12-12-12-12-12-12-|
A |-77777777-99999999--11-11-11-11-11-11-11-11--12-12-12-12-12-12-12-12-|
E |-55555555-77777777--9--9--9--9--9--9--9--9---10-10-10-10-10-10-10-10-|

"Shit piss fuck cunt cocksucker motherfucker tits fart turd 'n twat..."

[ Tab from: http://www.guitartabs.cc/tabs/b/blink_182/family_reunion_tab_ver_7.html ]
    PM   * PM   * PM 	      * PM	    *
e |--------------------------------------------|
B |--------------------------------------------|
G |--------------------------------------------|
D |-7777-9-9999-9-11-11-11-11-9-12-12-12-12----|
A |-7777-7-9999-7-11-11-11-11-7-12-12-12-12-12-|
E |-5555---7777---9--9--9--9----10-10-10-10-10-|

"Shit piss fuck cunt cocksucker motherfucker tits fart turd 'n twat..."


    Open (No PM this time)
e |---------------------------------------------------------------------|
B |---------------------------------------------------------------------|
G |---------------------------------------------------------------------|
D |-77777777-99999999--11-11-11-11-11-11-11-11--12-12-12-12-12-12-12-12-|
A |-77777777-99999999--11-11-11-11-11-11-11-11--12-12-12-12-12-12-12-12-|
E |-55555555-77777777--9--9--9--9--9--9--9--9---10-10-10-10-10-10-10-10-|

"Shit piss fuck cunt cocksucker motherfucker tits fart turd 'n twat..."


e |-----------------|
B |-----------------|
G |-----------------|
D |-7~------------7-|
A |-7~------------7-|
E |-5~------------5-|

"I fucked your mom.  (And I wanna suck my dad, and my momma too.
Oh, is this thing on?)" -Note:  Consult actual song for rhythm/strumming pattern.
Questions/comments, email me at gdw6813@yahoo.com.
Comments