Blink 182 - Family Reunion Chords & Tabs

 

Family Reunion Chords & Tabs

Blink 182 Chords & Tabs

Version: 1 Type: Tab 0 ratings
1 star 2 stars 3 stars 4 stars 5 stars
comments

Family Reunion Tab

Blink 182,Family Reunion.
Tabbed by Kornray00@netzero.net.
  
Blink 182
Family Reunion
The Mark, Tom, and Travis Show (The Enema Strikes Back)

Hey everyone again. this is another funny song and I hope you all can understand this tab. This is my fifth tab i think, and my other ones are blink (Aliens Exist, Untitled, Dumpweed, The Country Song, and now this). Be sure to look at them for more crappy tabs :) drop me a line
Kornray00@netzero.net

INTRO(let ring)
E-------------------
B-------------------
G-3-----------------
D-3-----------------
A-1-----------------
E-------------------
[ Tab from: http://www.guitartabs.cc/tabs/b/blink_182/family_reunion_tab.html ]
Verse Part 1:
E---------------------------------------------------
B---------------------------------------------------
G-22222222-44444444-66666666-77777777---------------
D-22222222-44444444-66666666-77777777---------------
A-00000000-22222222-44444444-55555555---------------
E---------------------------------------------------
PM....................................

Verse Part 2:
E---------------------------------------------------------------
B---------------------------------------------------------------
G--------2--------------2-----------------2---------------2-----
D----------2--------------2-----------------2-0-0-000000----2---
A-00000------2-2-2222222-----4-4-4444444------------------------
E---------------------------------------------------------------
PM.....          .......         .......          ......

Outro
E---------------------------------------------------
B---------------------------------------------------
G-22222222-44444444-66666666-7777777-7--7\----------
D-22222222-44444444-66666666-7777777-7--7\----------
A-00000000-22222222-44444444-5555555-5--5\----------
E---------------------------------------------------


 
:: Ultimate Guitar Archive :: 
http://www.ultimate-guitar.com 

Comments